Song name
# A B C D E F G H I J K L M N O P Q R S T U V W X Y Z

Skaters - Armed tab

Not speak english very well, but I hope you guys understand. This is a awesome new band.

Listen the music to get the timing. On this part, just hit the notes. On the
videoclip this goes to 0:43, again on 1:15

E|-----
B|-----
G|--8--
D|--8--
A|--6--
E|-----

On 1:25 is this listen to get it, its easy :D

E|------------|
B|--8-9-9-9-8-|
G|--8-8-8-8-8-|
D|--8-8-8-8-8-|
A|------------|
E|------------|

2:06 come to this again

E|-----
B|-----
G|--8--
D|--8--
A|--6--
E|-----

2:29, one more time

E|------------|
B|--8-9-9-9-8-|
G|--8-8-8-8-8-|
D|--8-8-8-8-8-|
A|------------|
E|------------|

2:51 the most awesome part!! It's really cool!


E|-11----------------------------------------|
B|----13-11-13-11----11----------------------|
G|----------------12----12-10-12-10----------|
D|----------------------------------13-10----|
A|----------------------------------------13-|
E|-------------------------------------------|
Tap to rate this tab
# A B C D E F G H I J K L M N O P Q R S T U V W X Y Z