Song name
# A B C D E F G H I J K L M N O P Q R S T U V W X Y Z

Skazi - Fucking My Brain tab

-------------------------------------------------------------------------------
			                            FUCKING MY BRAIN - Skazi
-------------------------------------------------------------------------------
Tabbed by: -Whatsername-
Email: c_finkel@walla.com

Tuning: Standard

Intro:

e|----------------------------------------------------5----------------------|
B|-----------1----5----1------1-----------1----5-------1----5----------------|
G|--2--2------------------2--------2--2--------------------------------------|
D|---------------------------------------------------------------------------|
A|---------------------------------------------------------------------------|
E|---------------------------------------------------------------------------|

e|------------------------------------------------------4--------------------|
B|-------------0--3---0-------0-------------0---5--------0---5---------------|
G|---1--1-----------------1---------1--1-------------------------------------|
D|---------------------------------------------------------------------------|
A|---------------------------------------------------------------------------|
E|---------------------------------------------------------------------------|

e|---------------------------------------------------------------------------|
B|---------------------------------------------------------------------------|
G|---------------------------------------------------------------------------|
D|---7------7/9-9---10\6-----6/7--7----9-------------------------------------|
A|---------------------------------------------------------------------------|
E|---------------------------------------------------------------------------|



| /  slide up
| \  slide down
| h  hammer-on
| p  pull-off
| ~  vibrato
| +  harmonic
| x  Mute note
===============================================================================
Tap to rate this tab
 
# A B C D E F G H I J K L M N O P Q R S T U V W X Y Z