Song name
# A B C D E F G H I J K L M N O P Q R S T U V W X Y Z

Skeewiff - Lost Due To Imcompetence tab

Hey guys, this is one of my first tabs. Im submitting this tab to what im playing by 
ive looked all over the internet and this is one of the more accurate tabs being played by 
This song is from the movie Cheech and Chong: Up in Smoke. Sadly this is only the main riff.
   Hope you like it~


E|--------------------------------------------------------|
B|--------------------------------------------------------|
G|--------------------------------------------------------|
D|-7-7-7-7-7-7---------7-7-7-7---------7-7-7-7--12-10-----|
A|-7-7-7-7-7-7--12-10--7-7-7-7--12-10--7-7-7-7------------|
E|-5-5-5-5-5-5---------5-5-5-5---------5-5-5-5------------|


E|--------------------------------------------------------|
B|--------------------------------------------------------|
G|--------------------------------------------------------|
D|--------------------------------------------------------|
A|--------------------------------------------------------|
E|--5-7-8-5-----------------------------------------------|
Tap to rate this tab
# A B C D E F G H I J K L M N O P Q R S T U V W X Y Z