Song name
# A B C D E F G H I J K L M N O P Q R S T U V W X Y Z

Skeletonwitch - Tragedy Of Days tab

Tragety Of Days By: Skeletonwitch

Tabbed By 666kataklysm.

E tuning.

I only tabed the intro and got lazy but enjoy.


_= palm mute
~= vibrato or slow down stroke or both
h= hammer on
p= pull off
"= tremblo pick




Acoustic intro                                                        X2

|---------------------------------------------------------------------------|
|---------------------------------------------------------------------------|
|-----------7---------------------------------------------------------------|
|--9~--9-10---10-9-7---9~-------------------10~----------------7-4-5--7-5-4-|
|--7~------------------9~-9-10-9-7-6h7p7----10~--7-8-7----8-7--5------6-----|
|--0~------------------7~-------------------8~---------10-------------------|


Riff 1                                                                   X2

|---------------------------------------------------------------------------|
|---------------------------------------------------------------------------|
|-----------7"--------------------------------------------------------------|
|----9"-10"---10"-9"-7"----------------------------------------4"-5'--5"-4"-|
|-7"---------------------9"-10"-9"-7"-6"---7"-8"-7"---8"-7"-5"------6"------|
|----------------------7"----------------8"--------10"----------------------|





Riff 2   (Play each part the # of times said)

|-------------------------------------------------------------------|
|-------------------------------------------------------------------|
|-------------------------------------------------------------------|
|------99-9-X4-------------X4------------X4-------44-4-X2------88-8-|
|------77-7-----------99-9----------77-7-----5555-55-5----6666-66-6-|
|-0000-----------7777-77-7-----8888-88-8----------------------------|
  ____           ____          ____          ____         ____


solo 1

|----------------------------------------------------------------------------------|
|-12~---10-8~--8h10p8-7~---5-7-8-7-10p8p7-10p8p7-10p8p7-5~--5-7h8-8-7-5h8p5-4~-----|
|-----------------------------------------------------------------------------9/4~-|
|----------------------------------------------------------------------------------|
|----------------------------------------------------------------------------------|
|----------------------------------------------------------------------------------|
Tap to rate this tab
# A B C D E F G H I J K L M N O P Q R S T U V W X Y Z