Song name
# A B C D E F G H I J K L M N O P Q R S T U V W X Y Z

Skeletonwitch - Repulsive Salvation tab

-----------------------------------------------------------------
"Repulsive Salvation" - Skeletonwitch
-----------------------------------------------------------------
Tabbed by: ASTRX
Email:

Tuning: Standard

Since I really like this song and Skeletonwitch tabs are rare, I decided to 
contribute. **KEEP IN MIND THAT THIS IS ONLY THE RHYTHM GUITAR.** I might 
add lead guitar later. Have fun.


Also, since Skeletonwitch is one of my favorite bands, I am thinking of adding more tabs. 
Message me if you are interested in more tabs or if you have any requests. 

Riff 1
e|---------------------------------------------------------------------|
B|---------------------------------------------------------------------|
G|---------------------------------------------------------------------|
D|-5-5-5-5-2-2-2-2-4-4-4-4-0-0-0-0-2-2-2-2-4-4-4-4-5-5-5-5-4-4-4-4-----|
A|-----------------------------------------------------------------4---|
E|-------------------------------------------------------------------5-| X4

e|---------------------------------------------------------------|
B|---------------------------------------------------------------|
G|---------------------------------------------------------------|
D|---------------------------------4-4-4-4-5-5-5-5-5-5-5-5-------|
A|---------------------------------------------------------------|
E|-2-2-2-2-2-2-2-2-2-2-2-2-0-0-2-2-------------------------------|

Riff 2
e|---------------------------------------------------------------|
B|---------------------------------------------------------------|
G|---------------------------------------------------------------|
D|---------------------------------2-2-2-2-0-0-0-0-0-0-0-0-------|
A|---------------------------------------------------------------|
E|-3-3-3-3-3-3-3-3-3-3-3-3-3-3-3-3-------------------------------|

e|---------------------------------------------------------------|
B|---------------------------------------------------------------|
G|---------------------------------------------------------------|
D|---------------------------------4-4-4-4-5-5-5-5-5-5-5-5-------|
A|---------------------------------------------------------------|
E|-2-2-2-2-2-2-2-2-2-2-2-2-0-0-2-2-------------------------------|

e|---------------------------------------------------------------|
B|---------------------------------------------------------------|
G|---------------------------------------------------------------|
D|---------------------------------2-2-2-2-0-0-0-0-0-0-0-0-------|
A|---------------------------------------------------------------|
E|-3-3-3-3-3-3-3-3-3-3-3-3-3-3-3-3-------------------------------|

Riff 3
e|-----------------------------------------------------------------|
B|-----------------------------------------------------------------|
G|-----------------------------------------------------------------|
D|-5-5-5-5-2-2-2-2-4-4-4-4-0-0-0-0-2-2-2-2-4-4-4-4-5-5-5-5-4-4-4-4-|
A|-----------------------------------------------------------------|
E|-----------------------------------------------------------------|
   . . . . . . . . . . . . . . . . . . . . . . . . . . . . . . . .

e|-----------------------------------------------------------------|
B|-----------------------------------------------------------------|
G|-----------------------------------------------------------------|
D|-5-5-5-5-2-2-2-2-4-4-4-4-0-0-0-0-2-2-2-2-4-4-4-4-5-5-5-5-4-4-4-4-|
A|-----------------------------------------------------------------|
E|-----------------------------------------------------------------|
   . . . . . . . . . . . . . . . . . . . . . . . . . . . . . . . .

e|-----------------------------------------------------------------|
B|-----------------------------------------------------------------|
G|-----------------------------------------------------------------|
D|-7-7-7-7-4-4-4-4-5-5-5-5-2-2-2-2-4-4-4-4-5-5-5-5-7-7-7-7-5-5-5-5-|
A|-----------------------------------------------------------------|
E|-----------------------------------------------------------------|
   . . . . . . . . . . . . . . . . . . . . . . . . . . . . . . . . 

e|-----------------------------------------------------------------|
B|-----------------------------------------------------------------|
G|-----------------------------------------------------------------|
D|-9-9-9-9-5-5-5-5-7-7-7-7-4-4-4-4-2-2-2-2-4-4-4-4-5-5-5-5-4-4-4-4-|
A|-----------------------------------------------------------------|
E|-----------------------------------------------------------------|
   . . . . . . . . . . . . . . . . . . . . . . . . . . . . . . . . 

Repeat riff 3 two times.

Riff 4
e|---------------------------------------------------------------|
B|---------------------------------------------------------------|
G|---------------------------------------------------------------|
D|---------4-----------------------------------------------------|
A|-2h3-2h3-2-----------------------------------------------------|
E|---------------------------------------------------------------| X2

Riff 5
e|---------------------------------------------------------|
B|---------------------------------------------------------|
G|---------------------------------------------------------|
D|-------------------------------2---------------------2---|
A|-2--2-2-2-2--3---5---6-2--2-2----5-4-2--2-2-2--2-4-5-----|
E|-0--0-0-0-0--1-0-3-0-4-0--0-0-----------0-0-0------------|
      . . . .    .   .      . .  . . . .    . .  . . . .

e|---------------------------------------------------------|
B|---------------------------------------------------------|
G|---------------------------------------------------------|
D|-------------------------------2---------------------2---|
A|-2--2-2-2-2--3---5---6-2--2-2----5-4-2--2-2-2--2-4-5-----|
E|-0--0-0-0-0--1-0-3-0-4-0--0-0-----------0-0-0------------|
      . . . .    .   .      . .  . . . .    . .  . . . .

e|---------------------------------------------------------|
B|---------------------------------------------------------|
G|---------------------------------------------------------|
D|-------------------------------2---------------------2---|
A|-2--2-2-2-2--6---3---5-2--2-2----5-4-2--2-2-2--2-4-5-----|
E|-0--0-0-0-0--4-0-1-0-3-0--0-0-----------0-0-0------------|
      . . . .    .   .      . .  . . . .    . .  . . . .

e|---------------------------------------|
B|---------------------------------------|
G|---------------------------------------|
D|---------------------------------------|
A|-2--2-2-2-2--3---5---6-3---5---6---3/5-|
E|-0--0-0-0-0--1-0-3-0-4-1-0-3-0-4-0-1/3-| 
      . . . .    .   .     .   .   .

Repeat riff 5 twice

Riff 6
e|----------------------------------------------------------------|
B|----------------------------------------------------------------|
G|----------------------------------------------------------------|
D|-----4---2---4---4---2---4--------------------------------------|
A|-2---2---3---5---2---3---5--------------------------------------|
E|-0--------------------------------------------------------------|

Riff 7
e|---------------------------------------------------------------|
B|---------------------------------------------------------------|
G|---------------------------------------------------------------|
D|---------------------------------4-4-4-4-5-5-5-5-5-5-5-5-------|
A|---------------------------------------------------------------|
E|-2-2-2-2-2-2-2-2-2-2-2-2-0-0-2-2-------------------------------|

e|---------------------------------------------------------------|
B|---------------------------------------------------------------|
G|---------------------------------------------------------------|
D|---------------------------------2-2-2-2-0-0-0-0-0-0-0-0-------|
A|---------------------------------------------------------------|
E|-3-3-3-3-3-3-3-3-3-3-3-3-3-3-3-3-------------------------------|

e|---------------------------------------------------------------|
B|---------------------------------------------------------------|
G|---------------------------------------------------------------|
D|---------------------------------4-4-4-4-5-5-5-5-5-5-5-5-------|
A|---------------------------------------------------------------|
E|-2-2-2-2-2-2-2-2-2-2-2-2-0-0-2-2-------------------------------|

e|----------------------------------------------------|
B|----------------------------------------------------|
G|----------------------------------------------------|
D|----------------------------------3---------3-------|
A|----------------------------------1---3-2---1---3-2-|
E|-3-3-3-3-3-3-3-3-3-3-3-3-3-3-3-3------1-0-------1-0-|
                                        . .       . .
Repeat riff 7 twice

Riff 8
e|---------------------------------|----Fourth time--------------------|
B|---------------------------------|-----------------------------------|
G|---------------------------------|-----------------------------------|
D|---------------------------------|-----------------------------------|
A|-3-----5/6---3---5---3---6---3/5-|-3-----5-2-2-2-2-2-2-2-2-2-2-2-2-2-|
E|-1-0-0-3/4-0-1-0-3-0-1-0-4-0-1/3-|-1-0-0-3-0-0-0-0-0-0-0-0-0-0-0-0-0-|
     . .     .   .   .   .   .    3x   . .     . . . . . . . . . . . .

Repeat riff 8 twice

Riff 9
Same as riff 8 but with more open palm muting between each non-open note.

Repeat riff 6 for solo

Riff 10
e|-----------------------------------------------------------------|
B|-----------------------------------------------------------------|
G|-----------------------------------------------------------------|
D|-----------------------------------------------------------------|
A|-5-5-5-5-2-2-2-2-4-4-4-4-0-0-0-0-2-2-2-2-4-4-4-4-5-5-5-5-4-4-4-4-|
E|-----------------------------------------------------------------|
   . . . . . . . . . . . . . . . . . . . . . . . . . . . . . . . . 

Repeat riff 10 until fade out


There you go! Repulsive Salvation! Please remember to comment and rate! Thank you! Gracias! Merci! 

Key:

| /  slide up
| \  slide down
| h  hammer-on
| p  pull-off
| ~  vibrato
| +  harmonic
| x  Mute note
| .  Palm mute
Tap to rate this tab
 
# A B C D E F G H I J K L M N O P Q R S T U V W X Y Z