Song name
# A B C D E F G H I J K L M N O P Q R S T U V W X Y Z

Skeptix - Curfew tab

-----------------------------------------------------------------
Curfew - The Skeptix
-----------------------------------------------------------------
Tabbed by: Dillon
Email: Angelic_oioi_upstart@yahoo.com

Tuning:Standard

Intro and Before Each Verse:
e|---------------------------------------------------------------|
B|---------------------------------------------------------------|
G|--6----6----6----6---------------------------------------------|
D|--6-8--6-8--6-8--6-8-------------------------------------------|
A|--4-8--4-8--4-8--4-8-------------------------------------------|
E|----6----6----6----6-------------------------------------------|

Verse:
e|---------------------------------------------------------------|
B|---------------------------------------------------------------|
G|-66------------------------------------------------------------|
D|-66-88-88-88---------------------------------------------------|
A|-44-88-66-88---------------------------------------------------|
E|----66-44-66---------------------------------------------------|

Chorus:
e|---------------------------------------------------------------|
B|---------------------------------------------------------------|
G|-88888888-1111-8-10--------------------------------------------|
D|-88888888-1111-8-10--------------------------------------------|
A|-66666666--9-9-6--8--------------------------------------------|
E|---------------------------------------------------------------|

| / slide up
| \ slide down
| h hammer-on
| p pull-off
| ~ vibrato
| + harmonic
| x Mute note

#----------------------------------PLEASE NOTE---------------------------------#
#This file is the author's own work and represents their interpretation of the #
#song. You may only use this file for private study, scholarship, or research. #
#------------------------------------------------------------------------------#
Tap to rate this tab
# A B C D E F G H I J K L M N O P Q R S T U V W X Y Z