Song name
# A B C D E F G H I J K L M N O P Q R S T U V W X Y Z

Skiantos - Sono Rozzo Sono Grezzo tab

Help us improve GuitareTab! Take a short survey!
e-----------------------------------------------------------------------------|
B-----------------------------------------------------------------------------|
G--------------------------------------------7--7--7-5-7----------------------|
D--7--7--7-5-7----------7--7--7-5-7----------7--7--7-5-7----------7--7--7-5-7-|
A--7--7--7-5-7----------7--7--7-5-7----------5--5--5-3-5----------7--7--7-5-7-|
E--5--5--5-3-5----------5--5--5-3-5-------------------------------5--5--5-3-5-|



e-----------------------------------------------------------------|
B-----------------------------------------------------------------|
G--9--9--9-7-9--------7--7--7-5-7---------------------------------|
D--9--9--9-7-9--------7--7--7-5-7------------7--7--7-5-7----------|
A--7--7--7-5-7--------5--5--5-3-5------------7--7--7-5-7----------|
E--------------------------------------------5--5--5-3-7----------|


link to the official website: www.skiantos.com
Related for Sono Rozzo Sono Grezzo tab