Song name
# A B C D E F G H I J K L M N O P Q R S T U V W X Y Z

Skid Row - Forever tab

Banda:Skid Row
Cancion:Forever
Album:40 Seasons:The best of Skid Row

 Riff 1  (x2)                                                          1
|-------------------------------------------------------------------|-----|
|-------------------------------------------------------------------|-----|
|----4--4--4--4--4-4--4--4--4--4---4----4----4----4----4---4----4---|--4^-|
|----4--4--4--4--4-4--4--4--4--4---4----4----4----4----4---4----4---|-----|
|-\--2--2--2--2--2-2--2--2--2--2-0-2-00-2-00-2-00-2-00-2-2-2-22-2-22|-----|
|-\-2-22-22-22-22-4-44-44-44-44-------------------------------------|-----|
    . .. .. .. .. . .. .. .. ..  .   ..   ..   ..   ..   .   ..   ..

Riff 2 (x2)
|----------------|---------------|-----------------|
|----------------|---------------|-----------------|
|-----------66-6-|----------22-2-|-----------------|
|--66666666-66-6-|--2222222-22-2-|-----------44-4--|
|--44444444-44-4-|--0000000-00-0-|--44444444-44-4--|
|----------------|---------------|--22222222-22-2--|
   ........         .......         ........
|-----------------------|
|-----------------------|
|--66-6\4/66-6-2222-22--|
|--66-6\4/66-6-2222-22--|
|--44-4\2/44-4-0000-00--|
|-----------------------|

Corte 1 (x2)
|------------------|--------------|
|------------------|--------------|
|--(4)-44-4-4-222--|666666666-222-|
|--(4)-44-4-4-222--|666666666-222-|
|--(2)-22-2-2-000--|444444444-000-|
|------------------|--------------|

 Corte 2
|-----------|
|-----------|
|-----------|
|--4-6-7-9--|
|--4-6-7-9--|
|--2-4-5-7--|

Coro
|--------------|-----------|-------------|------------|
|-------4/5-4--|-------4-5-|--------4/5--|----4---44--|
|----4-4-----4-|----4-4----|-----4-4---4-|----4---44--|
|----4---------|----4------|-----4-------|----2---22--|
|----2---------|----2------|--00-2-------|--22--22----|
|--22----------|--44-------|-------------|------------|
   ..             ..          ..            ..  ..

Riff 1(x1)
Riff 2(x2)
Corte1(x2)

Riff 3
|--------------------------|
|-----2----4---------------|
|----2-2----4---6--4--2--4-|
|---2---2-4--4---6-4--2--4-|
|--0-----2-----4---2--0--2-|
|--------------------------|

|-------------|
|-------------|
|-------------|
|--4-6-7-9-11-|
|--4-6-7-9-11-|
|--2-4-5-7-9--|

Riff 2 Durante el solo

etc.
Tap to rate this tab
# A B C D E F G H I J K L M N O P Q R S T U V W X Y Z