Guitaretab - guitar tabs
Song name
# A B C D E F G H I J K L M N O P Q R S T U V W X Y Z

Skid Row - Youth Gone Wild tab

All parts are played by both guitars unless otherwise stated.
Notes between [] = pinched harmonics.
Intro

|---------------------------------------|
|---------------------------------------|
|-----------3-3-----------3-3-----------|
|-----------3-3-----------3-3-----------|
|-----------1-1-----------1-1-----------|
|---------------------------------------|

|---------------------------------------|
|---------------------------------------|
|-0-----5--3--0--2--3--0-----5--3--0--2-|
|-0-----5--3--0--3--5--0-----5--3--0--3-|
|---------------------------------------|
|---------------------------------------|

|---------------------------------------|
|---------------------------------------|
|-3---8-----5--3--0--2--3---8-----------|
|-5---8-----5--3--0--3--5---8-----------|
|-----6---------------------6-----------|
|---------------------------------------|

|------------------------|
|------------------------|
|-5--3--0----------------|
|-5--3--0----------------|
|----------6-5-3---------|
|----------------6-6---5-|

|---------------------------------------|
|---------------------------------------|
|-0-----5--3--0--2--3--0-----5--3--0--2-|
|-0-----5--3--0--3--5--0-----5--3--0--3-|
|---------------------------------------|
|---------------------------------------|

|---------------------------------------|
|---------------------------------------|
|-3---8-----5--3--0--2--3---8-----------|
|-5---8-----5--3--0--3--5---8-----------|
|-----6---------------------6-----------|
|---------------------------------------|

|------------------------3--------------|
|------------------------3--------------|
|-5--3--0----------------3--------------|
|-5--3--0----------------5--------------|
|----------6-5-3---------5--------------|
|----------------6-6---5-3--------------|

Verse
(Play twice)
|---------------------------------------|
|---------------------------------------|
|--------x-x-2--3----------x-x--2--3----|
|--------x-x-3--5----------x-x--3--1----|
|---------------------------------------|
|---------------------------------------|

Bit at end of verse
|-----------------|
|-----------------|
|-----------------|
|--1-0------------|
|------3-1-3-1-0--|
|-----------------|

Pre-Chorus
|---------------------------------------|
|---------------------------------------|
|---------------------------------------|
|-3-------------------------5-----------|
|-3-------------------------5-----------|
|-1-chug-this-chord--then---3-----------|


|---------------------------------------|
|---------------------------------------|
|-3---3-------------5-------------------|
|-3-5-3-5-3-5---x-x-5-------------------|
|---5---5-3-5---x-x---------------------|
|---------------------------------------|

Guitar 1
|---------------------------------------|
|---------------------------------------|
|---------------------------------------|
|---------------------------------------|
|[5]---[3]---[1]---[0]------------------|
|---------------------------------------|
Guitar 2
|---------------------------------------|
|---------------------------------------|
|[5^(7)]--------------------------------|
|---------------------------------------|
|------------[5]------------------------|
|---------------------------------------|

|---------------------------------------|
|---------------------------------------|
|---------------------------8-----------|
|-3-----------------------x-8-----------|
|-3-----------------------x-6-----------|
|-1-chug-this-chord--then---------------|

|---------------------------------------|
|---------------------------------------|
|---------------------------------------|
|-7-7---x-7-7--x------------------------|
|-5-5---x-5-5--x-6---6---6-5-3----------|
|---------------------------------------|

Chorus
|---------------------------------------|
|---------------------------------------|
|-0-----5--3--0--2--3--0-----5--3--0--2-|
|-0-----5--3--0--3--5--0-----5--3--0--3-|
|---------------------------------------|
|---------------------------------------|

|---------------------------------------|
|---------------------------------------|
|-3---8-----5--3--0--2--3---8-----------|
|-5---8-----5--3--0--3--5---8-----------|
|-----6---------------------6-----------|
|---------------------------------------|

|------------------------|
|------------------------|
|-5--3--0----------------|
|-5--3--0----------------|
|----------6-5-3---------|
|----------------6-6---5-|

|---------------------------------------|
|---------------------------------------|
|-0-----5--3--0--2--3--0-----5--3--0--2-|
|-0-----5--3--0--3--5--0-----5--3--0--3-|
|---------------------------------------|
|---------------------------------------|

|---------------------------------------|
|---------------------------------------|
|-3---8-----5--3--0--2--3---8-----------|
|-5---8-----5--3--0--3--5---8-----------|
|-----6---------------------6-----------|
|---------------------------------------|


|------------------------3----------|
|------------------------3----------|
|-5--3--0----------------3----------|
|-5--3--0----------------5----------|
|----------6-5-3---------5----------|
|----------------6-6---5-3----------|

Go back to start of verse and play to here again.


Solo 1
Guitar 1
|---------------------------------------|
|---------------------------------------|
|------------------------------12\------|
|------------------------------12\------|
|----harmonics-dropped-with-bar---------|
|---------------------------------------|
[ Tab from: http://www.guitaretab.com/s/skid-row/17407.html ]
|---------------------------------------|
|---------------------------------------|
|[12^(14)]---[12^(14)]~~~~~~~-----------|
|---------------------------------------|
|---------------------------------------|
|---------------------------------------|

|-10-11----10---------------------------------|
|-------13----13-11-10------------------------|
|----------------------10----10-[14^(16)r14]~~|
|-------------------------12------------------|
|---------------------------------------------|
|---------------------------------------------|

|-15-17-13-17-12-17-------------------------|
|-------------------15-17-13-17-12h13p12----|
|----------------------------------------14-|
|-------------------------------------------|
|-------------------------------------------|
|-------------------------------------------|

|-------17----19----20----20^(22)r20~~~-|
|-/17------17----17----17---------------|
|---------------------------------------|
|---------------------------------------|
|---------------------------------------|
|---------------------------------------|





Solo 2
Guitar 2
|---------------------------------------|
|---------------------------------------|
|-[4^(5)r4]p2-[4]~~~~~~-----------------|
|---------------------------------------|
|---------------------------------------|
|---------------------------------------|

|---------------------------------------|
|---------------------------------8^(10)|
|-5---7---5-[7^(9)r7]p5-5-7^(9)p5-------|
|---7---7-------------------------------|
|---------------------------------------|
|---------------------------------------|

|---5-----------------------------------|
|-----8-7-5-----------------------------|
|-----------8-7-5-8-7-5---7-5~~---------|
|-----------------------7---------------|
|---------------------------------------|
|---------------------------------------|

|--------------------------------------------|
|--------------------------------------------|
|--5^(6)-5^(7)r5p3---------------------------|
|--------------------------------------------|
|------------------3^(4)-3^(5)r3p1-3-3-3-1-0-|
|--------------------------------------------|

|---------------------------------------|
|---------------------------------------|
|---------------------------------------|
|-[5]\____/-\---------------------------|
|------------\**------------------------|
|---------------------------------------|
**Last note is picked then manipulated with bar





Outro

|---------------------------------------|
|---------------------------------------|
|-------------------------3-------------|
|-------------------------3-x-3--x-5----|
|-------------------------1-x-3--x-5----|
|-----------------------------1----3----|

|---------------------------------------|
|---------------------------------------|
|---------------------------------------|
|---------------------------------------|
|-------------------------1-0-----1-----|
|-----------------------------3-1-----0-|

|---------------------------------------|
|---------------------------------------|
|-0-----5--3--0--2--3--0-----5--3--0--2-|
|-0-----5--3--0--3--5--0-----5--3--0--3-|
|---------------------------------------|
|---------------------------------------|

|---------------------------------------|
|---------------------------------------|
|-3---8-----5--3--0--2--3---8-----------|
|-5---8-----5--3--0--3--5---8-----------|
|-----6---------------------6-----------|
|---------------------------------------|

|------------------------|
|------------------------|
|-5--3--0----------------|
|-5--3--0----------------|
|----------6-5-3---------|
|----------------6-6---5-|

|---------------------------------------|
|---------------------------------------|
|-0-----5--3--0--2--3--0-----5--3--0--2-|
|-0-----5--3--0--3--5--0-----5--3--0--3-|
|---------------------------------------|
|---------------------------------------|

|---------------------------------------|
|---------------------------------------|
|-3---8-----5--3--0--2--3---8-----------|
|-5---8-----5--3--0--3--5---8-----------|
|-----6---------------------6-----------|
|---------------------------------------|

|------------------------|
|------------------------|
|-5--3--0----------------|
|-5--3--0----------------|
|----------6-5-3---------|
|----------------6-6---5-|

|---------------------------------------|
|---------------------------------------|
|-0-----5--3--0--2--3--0-----5--3--0--2-|
|-0-----5--3--0--3--5--0-----5--3--0--3-|
|---------------------------------------|
|---------------------------------------|

|---------------------------------------|
|---------------------------------------|
|-3---8-----5--3--0--2--3---8-----------|
|-5---8-----5--3--0--3--5---8-----------|
|-----6---------------------6-----------|
|---------------------------------------|

|---------------|
|---------------|
|-5--3--0--3----|
|-5--3--0--3--3-|
|----------1--3-|
|-------------1-|

|---------------------------------------|
|---------------------------------------|
|-------5--3--0--2--3--0-----5--3--0--2-|
|-5-----5--3--0--3--5--0-----5--3--0--3-|
|-5-------------------------------------|
|-3-------------------------------------|

|---------------------------------------|
|---------------------------------------|
|-3---8-----5--3--0--2--3---8-----------|
|-5---8-----5--3--0--3--5---8-----------|
|-----6---------------------6-----------|
|---------------------------------------|

|------------------------3--|
|------------------------3--|
|-5--3--0----------------3--|
|-5--3--0----------------5--|
|----------6-5-3---------5--|
|----------------6-6---5-3--|


Hopefully, this is all correct.
If you like it, please rate it.
If you spot a mistake, let me know and Iíll try to correct it.
Related for Youth Gone Wild tab