Song name
# A B C D E F G H I J K L M N O P Q R S T U V W X Y Z

Skid Row - White Trash tab

-----------------------------------------------------------------------------
		  	                           White Trash - Skid Row
-----------------------------------------------------------------------------


This is my first song ear-transcribed, please email me if there's something wrong


Tabbed by: Rafael*~
Email: ra_i_iy@hotmail.com

Tuning: Standard

Intro
e|---------------------------------------------------------------------------|
B|---------------------------------------------------------------------------|
G|-----77-x-5-------77-x-5-------77-x-5-------55-x-7-------------------------|
D|77-x-77-x-5--77-x-77-x-5--77-x-77-x-5--77-x-55-x-7-------------------------|
A|77-x-55-x-3--77-x-55-x-3--77-x-55-x-3--77-x-33-x-5-------------------------|
E|55-x---------55-x---------55-x---------55-x--------------------------------|

e|---------------------------------------------------------------------------|
B|---------------------------------------------------------------------------|
G|-----77-x-5-------77-x-5-------77-x-5-------55-x-7-------------------------|
D|77-x-77-x-5--77-x-77-x-5--77-x-77-x-5--77-x-55-x-7-------------------------|
A|77-x-55-x-3--77-x-55-x-3--77-x-55-x-3--77-x-33-x-5-------------------------|
E|55-x---------55-x---------55-x---------55-x--------------------------------|


Verse
He plays something like that, and repeats 'til the end of the verse

e|---------------------------------------------------------------------------|
B|10-10--10--10-10--10-10--10--10-10--10-10--10--10-10-----------------------|
G|---------------------------------------------------------------------------|
D|---------------------------------------------------------------------------|
A|---------------------------------------------------------------------------|
E|---------------------------------------------------------------------------|

In the end of verse, before enter on bridge he plays

e|---------------------------------------------------------------------------|
B|---------------------------------------------------------------------------|
G|55-x-7---------------------------------------------------------------------|
D|55-x-7---------------------------------------------------------------------|
A|33-x-5---------------------------------------------------------------------|
E|---------------------------------------------------------------------------|

Bridge(2x)
e|---------------------------------------------------------------------------|
B|---------------------------------------------------------------------------|
G|----7--5-----7--5-----7--5-------------------------------------------------|
D|7---7--5-7---7--5-7---7--5-7-----------------------------------------------|
A|7---5--3-7---5--3-7---5--3-7-----------------------------------------------|
E|5--------5--------5--------5-----------------------------------------------|

Chorus(2x)
e|---------------------------------------------------------------------------|
B|---------------------------------------------------------------------------|
G|---------------------------------------------------------------------------|
D|4------------6-7-----------8-9------------10------11-----------------------|
A|4------------6-7-----------8-9------------10------11-----------------------|
E|2------------4-5-----------6-7------------8-------9------------------------|

Then he repeats everything
During the harmonica's solo he plays the intro
Then he plays the Chorus and ends playing the intro again

That's all, hope you enjoy !
=============================================================================
Tap to rate this tab
# A B C D E F G H I J K L M N O P Q R S T U V W X Y Z