Song name
# A B C D E F G H I J K L M N O P Q R S T U V W X Y Z

Skid Row - Youth Gone Wild tab

          Skid Row - Youth Gone Wild Solo                                 


                                                                        
Snake Sabo Solo


                              \1                            
                                          |-----3----|      
  Q    Q    Q      Q          H           H          Q      
------------------------|--<>15--------<>15~---------------|
------------------------|---------------------------15b----|
--L----L----L-----------|----------------------------------|
--L----L----L-----------|----------------------------------|
------------------------|----------------------------------|
------------3br----L----|----------------------------------|
            wild                          We         stand 


   S   S  S      S    S  S      S   S   S     Q     S E   
--13--12-------------------------------------------------|
---------15-----13---12----------------------------------|
------------------------15-----14--12h-14--<>12~---------|
---------------------------------------------------------|
---------------------------------------------------------|
---------------------------------------------------------|
   and we won\'t fall    We\'re the one and   one       


   S   S   S  S   S          S  S   S   S  S S   S   Q      
--15--17--13-15--12---------13-10--12---8-10-7---8---5~----|
-----------------------------------------------------------|
-----------------------------------------------------------|
-----------------------------------------------------------|
-----------------------------------------------------------|
-----------------------------------------------------------|
   for all    The writing\'s on the wall   Weare the youth

                              
                                                     
    S   S    S  S  S   S   S     S    Q      Q        
--/12--13---15-13-15--17--15----17---22b----22~----|
---------------------------------------------------|
---------------------------------------------------|
---------------------------------------------------|
---------------------------------------------------|
---------------------------------------------------|
    gonewild    We are the youth gone wild  



Scott Hill Solo


    SH        PM PM PM            PM      PM                                  
    3                        3                   3                     3   3  
    H         S  S  S  Q     Q    S     S S  S S E   E    S   Q     E  E   T  
-------------------------------------|---------------------------------------|
-------------------------------------|---------------------------------8b--L-|
--<>5b--------7--5-----5~----L-------|--5----5-7-7~--7br--5-<>7~----5--------|
--------------------7-------------7--|----7----------------------------------|
-------------------------------------|---------------------------------------|
-------------------------------------|---------------------------------------|


                                                                       \5 
  S S S S S S S S E    S S E  E     E     E      E     E  E  E  E  S   S  
---------------------------------|---------------------------------------|
--L-8-6-5------------------------|---------------------------------------|
----------7-5-4---7br--5---5--3--|--5br--(5)br--(5)br--L--L--L--L--L-<>5-|
----------------7--------7-------|---------------------------------------|
---------------------------------|---------------------------------------|
---------------------------------|---------------------------------------|


  Q    H        Q                       
---------------------|-------|-------|
---------------------|-------|-------|
--L----L-------------|-------|-------|
---------------------|-------|-------|
---------------------|-------|-------|
---------------------|-------|-------|


Duration Legend
---------------
W - whole
H - half
Q - quarter
E - 8th
S - 16th
T - 32nd
X - 64th
. - note dotted
|-n-|  - n-tuplets


Tablature Legend
----------------
L - tied note
x - dead note
g - grace note
(n) - ghost note
> - accentuded note
NH - natural harmonic
AH - artificial harmonic
TH - tapped harmonic
SH - semi harmonic
PH - pitch harmonic
h - hammer on
p - pull off
b - bend
br - bendRelease
pb - preBend
pbr - preBendRelease
brb - bendReleaseBend
\n/ - tremolo bar dip
\n - tremolo bar dive
-/n - tremolo bar Release up
/n\ - tremolo bar inverted dip
/n - tremolo bar return
-\n - tremolo bar Release down
S - shift slide
s - legato slide
/ -  slide into from below or out of upwards
\ -  slide into from above or out of downwards
~ - vibrato
W - wide vibrato
tr - trill
TP - tremolo picking
T - tapping
S - slap
P - pop
< - fade in
^ - brush up
v - brush down
Tap to rate this tab
# A B C D E F G H I J K L M N O P Q R S T U V W X Y Z