Song name
# A B C D E F G H I J K L M N O P Q R S T U V W X Y Z

Skid Row - 18 N Life tab

Help us improve GuitareTab! Take a short survey!
18 n life - Skid Row

Guitar Solo:


   h   a.h      h          h  a.h      h p       h
E--------------------------------------------------------------7---7/9--------
B----------------------------------------------------------7/9---9------------
G--8-9---------8-9--------8-9-11~~----8-9-8------8-9--------------------------
D------11----------11-----------------------9--------11-----------------------
A-----------------------------------------------------------------------------
E-----------------------------------------------------------------------------
                    r     h  p  (bend + release)a.h
        (hold bend)(release from bent position)|(bend + release)
E--9\7------------------------------------------------------------------------
B------9-7------9-------------------------------17''------------9-10-12-10----
G------------11'--'11----9-11-9-----8''------------------8-9-11---------------
D-----------------------------------9-----------------------------------------
A-----------------------------------------------------------------------------
E-----------------------------------------------------------------------------
 (sweep)                                                        p
E----9----------------------------------------------9----\14--12-11-12--------
B---x------12-10-9--------------------------9-10-12---------------------------
G--x---------------11-9-8-9-8--------8-9-11-----------------------------------
D-x-------------------------------11------------------------------------------
A-----------------------------------------------------------------------------
E-----------------------------------------------------------------------------
 (slight vibrato)  (not 100% sure about this part)
                            p                 p        p
E-\19~-----------19-17-16-17-16----16-----------------------------------------
B-------------------------------19----19-17-19-17-16-17-16----16--------------
G----------------------------------------------------------18----18-16--------
D-----------------------------------------------------------------------------
A-----------------------------------------------------------------------------
E-----------------------------------------------------------------------------
                 (hold 'till fade)
E-19'(21)-19'(21)-19'(21)~~~--------------------------------------------------
B-----------------------------------------------------------------------------
G-----------------------------------------------------------------------------
D-----------------------------------------------------------------------------
A-----------------------------------------------------------------------------
E-----------------------------------------------------------------------------

Notation:

h - hammer-on
p - pull-off
' - bend
r - release
~ - vibrato
a.h - artificial harmonic
Related for 18 N Life tab