Song name
# A B C D E F G H I J K L M N O P Q R S T U V W X Y Z

Skid Row - 18 And Life tab

SOLO

h = hammer on
p = pull off
b = bend
br = release bend
ah = artificial harmonic

           ah             ah  
|-----------|------------------------------|
|--------4h5|2---4h5----4h5-5b---5p4----4h5|
|-----------|-------6---------------6------|
|-----------|------------------------------|
|-2..-------|------------------------------|
|-----------|------------------------------|


|------------------------------------------|
|----9h12p9-12b-12br-9---------------------|
|6--------------------9-11b---11br-8h9-8---|
|--------------------------------------9---|
|------------------------------------------|
|------------------------------------------|

 ah
|-------------------------9-------------------|
|------------9h10h12-10-----12p10p9-----------|
|9rb--8-9-11-----------------------11-9-8h9p8-|
|---------------------------------------------|
|---------------------------------------------|
|---------------------------------------------|

|----------------------19--17p16h17p16--16--------------19b----|
|--------12/14-17b-17-----------------19---19p17-19p17---------|
|----9h11---------------------------------------------18-------|
|9h11----------------------------------------------------------|
|--------------------------------------------------------------|
|--------------------------------------------------------------|

Alex.




Tap to rate this tab
 
# A B C D E F G H I J K L M N O P Q R S T U V W X Y Z