Song name
# A B C D E F G H I J K L M N O P Q R S T U V W X Y Z

Skid Row - Born A Beggar tab

 F                                               Am     G
 4/4
  Gtr I
|---------0-----|---------0-----|---------0-----|------0---------|
|---1--3----3-1-|---1--3----3-1-|---1--3----3-1-|------1-----3---|
|---2--2--------|---2--2--------|---2--2--------|---2--2-----0---|
|-3-------------|-3-------------|-3-------------|---2--------0---|
|---------------|---------------|---------------|-0--------0-----|
|---------------|---------------|---------------|--------3-------|


  F                                                     Am      G
  Gtr I
|-----------0-----|-----------0-----|-----------0-----|-----0----------|
|---1---3-----3-1-|---1---3-----3-1-|---1---3-----3-1-|-----1-------3--|
|---2---2---------|---2---2---------|---2---2---------|---2-2-------0--|
|-3---------------|-3---------------|-3---------------|---2---------0--|
|-----------------|-----------------|-----------------|-0---------0----|
|-----------------|-----------------|-----------------|---------3------|
|
| Gtr II
|                                                             PM
|-----------------|-----------------|-----------------|----------------|
|-----------------|-----------------|-----------------|----------------|
|-----------------|-----------------|-----------------|----------------|
|-----------------|-----------------|-----------------|-----7-------5--|
|-----------------|-----------------|-----------------|-7-7-7---5-5-5--|
|-1-1-1-1-1-1-1-1-|-5-5-5-5-5-5-5-5-|-1-1-1-1-1-1-1-1-|-5-5-5-x-3-3-3--|


  F                                                     Am        G
|-----------0-----|-----------0-----|-----------0-----|-----0----------|
|---1---3-----3-1-|---1---3-----3-1-|---1---3-----3-1-|-----1-------3--|
|---2---2---------|---2---2---------|---2---2---------|---2-2-------0--|
|-3---------------|-3---------------|-3---------------|---2---------0--|
|-----------------|-----------------|-----------------|-0---------0----|
|-----------------|-----------------|-----------------|---------3------|
|
|                                                             PM
|-1---------------|-5---------------|-1---------------|----------------|
|-1---------------|-5---------------|-1---------------|----------------|
|-2---------------|-5---------------|-2---------------|----------------|
|-3---------------|-7---------------|-3---------------|-----7-------5--|
|-3---------------|-7---------------|-3---------------|-7-7-7---5-5-5--|
|-1-1-1-1-1-1-1-1-|-5-5-5-5-5-5-5-5-|-1-1-1-1-1-1-1-1-|-5-5-5-x-3-3-3--|


|-----------------|-----------------|-----------------|----------------|
|-1---------------|-1---------------|-1---------------|-3--------------|
|-0---------------|-2---------------|-2---------------|-0--------------|
|-2---------------|-3---------------|-2---------------|-0--------------|
|-3---------------|-----------------|-0---------------|----------------|
|-----------------|-----------------|-----------------|-3--------------|
|
|-----------------|-1---------------|-----------------|----------------|
|-----------------|-1---------------|-1---------------|----------------|
|-5---------------|-2---------------|-2---------------|----------------|
|-5---------------|-3---------------|-2---------------|----------------|
|-3-3-3-3-3-3-3-3-|-3---------------|-0-0-0-0-0-0-0-0-|-5-5-5---5-5-5--|
|-----------------|-1-1-1-1-1-1-1-1-|-----------------|-3-3-3-x-3-3-3--|


|-----------------|-----------------|-----------------|----------------|
|-1---------------|-1---------------|-1---------------|-3--------------|
|-0---------------|-2---------------|-2---------------|-0--------------|
|-2---------------|-3---------------|-2---------------|-0--------------|
|-3---------------|-----------------|-0---------------|----------------|
|-----------------|-----------------|-----------------|-3--------------|
|
|-----------------|-1---------------|-----------------|----------------|
|-----------------|-1---------------|-1---------------|----------------|
|-5---------------|-2---------------|-2---------------|----------------|
|-5---------------|-3---------------|-2---------------|----------------|
|-3-3-3-3-3-3-3-3-|-3---------------|-0-0-0-0-0-0-0-0-|-5-5-5---5-5-5--|
|-----------------|-1-1-1-1-1-1-1-1-|-----------------|-3-3-3-x-3-3-3--|


|-1---------|----------|-1--------|------------------|
|-1---------|--1-------|-1--------|------------------|
|-2---------|--0-------|-2--------|------------------|
|-3---------|--2-------|-3--------|-----7-------5----|
|-3---------|--3-------|-3--------|-7-7-7---5-5-5----|
|-1---------|----------|-1--------|-5-5-5-x-3-3-3----|
Tap to rate this tab
 
# A B C D E F G H I J K L M N O P Q R S T U V W X Y Z