Song name
# A B C D E F G H I J K L M N O P Q R S T U V W X Y Z

Skid Row - See You Around tab

Help us improve GuitareTab! Take a short survey!
Skid Row - See You Around
Whole song missing only some background notes but this one fits it fine =]
Tab done by Danilo Marchesi

For any contact, daniloviski@terra.com.br
 ICQ: 92332661
MSN: blue_aof@hotmail.com

          [INTRO]
e   |------------------------------------------------------------------------|
B  |---9~ ---6~ ----4~ ------------9~ ----- 6~ ----4~ -----------------------|
G  |-------------------------6~ ----------------------------- 6~ ------------|
D  |-----------------------------------------------------------------6~ -----|
A  |-------------------------------------------------------------------------|
E  |-------------------------------------------------------------------------|

       [REEF A]
|---------------------------------------------------------------------------------|
|---------------------------------------------------------------------------------|
|---------------------------------------------------------------------------------|
|---6-6-6-6-6-6-6-6---8-8-8-8-8-8-8-8---------------------------------------------|
|---4-4-4-4-4-4-4-4---6-6-6-6-6-6-6-6----8-8-8-8-8-8-8-8---6-6-6-6-6-6-6-6--------|
|----------------------------------------------6-6-6-6-6-6-6-6---4-4-4-4-4-4-4-4--|

       [REEF B]
|-----------------------------------------------------------------------------|
|-----------------------------------------------------------------------------|
|-----------------------------------------------------------------------------|
|---6-6-6-6-6-6-6-6-----------------------------------------------------------|
|---4-4-4-4-4-4-4-4---6-6-6-6-6-6-6-6---8-8-8-8-8-8-8-8---6-6-6-6-6-6-6-6-----|
|------------------------4-4-4-4-4-4-4-4---6-6-6-6-6-6-6-6---4-4-4-4-4-4-4-4--|

    [REEF C]
|---------------------------------------------------------------------------------------------------|
|---------------------------------------------------------------------------------------------------|
|---9-9-9-9-9-9-9-9---11-11-11-11-11-11-11-11---13-13-13-13-13-13-13-13-13-13-13-13-13-13-13-13-----|
|---7-7-7-7-7-7-7-7----9--9---9--9---9--9--9--9----11-11-11-11-11-11-11-11-11-11-11-11-11-11-11-11--|
|---------------------------------------------------------------------------------------------------|
|---------------------------------------------------------------------------------------------------|

    [REEF D]
|------------------------------------------------------------------------------------------|
|------------------------------------------------------------------------------------------|
|------------------------------------------------------------------------------------------|
|------------------------------------------------------------------------------------------|
|---8-x-8-x-8-x-4-x-4-x-4-x-8-x-8-x-8-x-4-x-4-x-4-x-8-x-8-x-8-x-2-x-2-x-2-x-4---3---4---2--|
|---6-x-6-x-6-x-2-x-2-x-2-x-6-x-6-x-6-x-2-x-2-x-2-x-6-x-6-x-6-x-4-x-4-x-4-x-2---1---2---1--|

Ordem:
INTRO
REEF A
REEF A
REEF B
REEF A
REEF A
REEF A
INTRO
REEF A
REEF A
REEF B
REEF A
REEF A
REEF A
REEF C
REEF C [only first and second notes]
REEF D
.........
Related for See You Around tab