Song name
# A B C D E F G H I J K L M N O P Q R S T U V W X Y Z

Skid Row - Thick Is The Skin tab

Skid Row - Thick is the Skin Solo
Tabber: Matt Courte
shortsleeves@hotmail.com

About 1/4 step down
I think he uses a wah or something
|------------------|----------------------------|
|------------------|----------------------------|
|-15b-15b-13-------|-15b-15b-15b----15p13-------|
|------------14~\0-|-------------14-------14~\0-|
|------------------|----------------------------|
|------------------|----------------------------|
leave wah about 1/4 from the heel end and bring it to middle on bends

|---------------15b--12-12-12tr15-------------------------------|
|-15b-15b-15br13-----------------12tr15-------------------------|
|--------------------------------------12tr14-------------------|
|--------------------------------------------12tr14-------------|
|--------------------------------------------------12tr14-------|
|--------------------------------------------------------12tr15-|
start with wah about middle then hit toe on bends and sweep forwards for the trilling descendre
Tap to rate this tab
# A B C D E F G H I J K L M N O P Q R S T U V W X Y Z