Song name
# A B C D E F G H I J K L M N O P Q R S T U V W X Y Z

Skid Row - Another Dick In The System tab

                           ANOTHER DICK IN THE SYSTEM
                             As recorded by Skid Row
                  (From the 2006 Album REVOLUTIONS PER MINUTE)

Transcribed by Corey Hunter

 Intro
  Fast Rock Q=180
 4/4
  Gtr I
|----------||----------------------|------------------|
|----------||o---------------------|------------------|
|----------||--------------------2-|-(2)------------2-|
|----------||--------------------2-|-(2)------------2-|
|----------||o-------0-2-(2)-0---0-|-(0)--4-4-4-----0-|
|--------2-||--(2)-4-----------4---|------4-4-4-1-4---|


|------------------|------------------|-------------------------||
|------------------|------------------|------------------------o||
|-(2)------------2-|-(2)--------------|-------------------2-----||
|-(2)------------2-|-(2)--------------|-------------------2-----||
|-(0)--4-4-4-----0-|-(0)--4-4-4-------|-------0-2-(2)-0---0----o||
|------4-4-4-1-4---|------4-4-4-1-4-2-|-(2)-4-----------4-------||


 Verse
|----------------|-------------|--------------|--------------|
|----------------|-------------|--------------|--------------|
|-(2)------------|-----------2-|-(2)----------|-----------2--|
|-(2)------------|-----------2-|-(2)----------|-----------2--|
|-(0)-----4------|-----------0-|-(0)---4------|-----------0--|
|-----(1)-4------|-----1-4-1---|-----1-4------|-----1-4-1----|


|--------------|-------------|--------------|--------------|
|--------------|-------------|--------------|--------------|
|-(2)----------|-----------2-|-(2)----------|-----------2--|
|-(2)----------|-----------2-|-(2)----------|-----------2--|
|-(0)---4------|-----------0-|-(0)---4------|-----------0--|
|-----1-4------|-----1-4-1---|-----1-4------|-----1-4-1----|


|-------------------|---------------------|
|-------------------|---------------------|
|-(2)---------------|---------------------|
|-(2)---------------|---------------------|
|-(0)---4-4-4-4-4-4-|-4-4-4-2-(2)-2-(2)-4-|
|-----1-4-4-4-4-4-4-|-4-4-4-2-(2)-2-(2)-4-|


|-------------------|----------------------|
|-------------------|----------------------|
|-------------------|-------2-(2)-2-(2)----|
|-------------------|-------2-(2)-2-(2)----|
|-(4)-4-4-4-4-4-4-4-|-4-4-4-0-(0)-0-(0)-4--|
|-(4)-4-4-4-4-4-4-4-|-4-4-4-------------4--|


|-------------------|---------------------|
|-------------------|---------------------|
|-------------------|---------------------|
|-------------------|---------------------|
|-(4)-4-4-4-4-4-4-4-|-4-4-4-2-(2)-2-(2)-4-|
|-(4)-4-4-4-4-4-4-4-|-4-4-4-2-(2)-2-(2)-4-|


|-------------------|------------------||
|-------------------|------------------||
|-------------------|---------------4--||
|-------------------|---------------4--||
|-(4)-4-4-4-4-4-4-4-|-4-4-4-4-4-4-0-2--||
|-(4)-4-4-4-4-4-4-4-|-4-4-4-4-4-4-0----||


   Chorus
||--------------------|-----------------|------------------|------------------|
||o-------------------|-----------------|------------------|------------------|
||--(4)-4-4-4-4-4-4-4-|-4-4-4-4-4-4-4---|----------------2-|-(2)------------4-|
||--(4)-4-4-4-4-4-4-4-|-4-4-4-4-4-4-4---|----------------2-|-(2)------------4-|
||o-(2)-2-2-2-2-2-2-2-|-2-2-2-2-2-2-2-4-|-(4)-4-4--------0-|-(0)---4--4-4---2-|
||--------------------|---------------4-|-(4)-4-4--1-4-1---|-----1-4--4-4-1---|


                                 1.
|-------------------|-----------|------------------|-------------------||
|-------------------|-----------|------------------|------------------o||
|-(4)-4-4-4-4-4-4-4-|-4-------2-|-(2)------------2-|-(2)-----------4---||
|-(4)-4-4-4-4-4-4-4-|-4-------2-|-(2)------------2-|-(2)-----------4---||
|-(2)-2-2-2-2-2-2-2-|-2-------0-|-(0)---4--------0-|-(0)--4--4-4-4-2--o||
|-------------------|-----------|-----1-4--1-4-1---|------4--4-4-4-----||


    2.
||-----------------|------------------|----------------|----------------------||
||o----------------|------------------|----------------|---------------------o||
||--2------------2-|-(2)------------2-|-2--------------|-------------------2--||
||--2------------2-|-(2)------------2-|-2--------------|-------------------2--||
||o-0--4-4-4-----0-|-(0)--4-4-4-----0-|-0--4-4-4-------|-------0-2-(2)-0---0-o||
||-----4-4-4-1-4---|------4-4-4-1-4---|----4-4-4-1-4-2-|-(2)-4-----------4----||



***************************************************************************************
* Generated using Power Tab Editor by Brad Larsen - http://powertab.guitarnetwork.org *
***************************************************************************************
Tap to rate this tab
 
# A B C D E F G H I J K L M N O P Q R S T U V W X Y Z