Song name
# A B C D E F G H I J K L M N O P Q R S T U V W X Y Z

Skidmarks - Snickers tab

Skidmarks - Snicker

E--------------------------|-------------------------------|
B--------------------------|-------------------------------|
G--------------------------|-------------------------------|
D---1---------1---- ------|--------------------------------|
A-2---1----1---2---------|---3333------2222---3333---------|
E---------3--------2--33-|---------4444--------------------|

E-----------------------------------------------------|
B-----------------------------------------------------|
G-----------------------------------------------------|
D--5-xxxx-------------3333----------------------------|
A--3-xxxx-5-xxxx--------5555--------11112222----------|
E-------------3-xxxx----------------0000--------------|

E-------------------------------|---------------------------|
B-------------------------------|---------------------------|
G-------------------------------|---------------------------|
D----0-xxxx--3-3-3-3-------|-----------------2020132014-----|
A----0-xxxx--3-3-3-3-------|--------------------------------|
E-------------- 1-1-1-1-------|-------0-1-2-0---------------|


E--00000000--------------0~ ----------------------
Tap to rate this tab
# A B C D E F G H I J K L M N O P Q R S T U V W X Y Z