Song name
# A B C D E F G H I J K L M N O P Q R S T U V W X Y Z

Skids - Saints Are Coming tab

This is what the lead guitarist plays ok.
Intro
e--1010101010101010(x8)----|
b--1010101010101010(x8)----|
g--------------------------|
d--------------------------|
a--------------------------|
E--------------------------|
Drums come in.
e--1---1---1---1---1---0---0---0---0---0---0---0---0---0---0---0---0----|
b-----3---3---3---3---3---3---3---3---1---1---1---1---1---0---0---0---0-|
g-----------------------------------------------------------------------|
d-----------------------------------------------------------------------|x2
a-----------------------------------------------------------------------|
E-----------------------------------------------------------------------|

Verse.
e--11111111-00000000-00000000-00000000-|
b--33333333-33333333-11111111-11111111-|
g--------------------------------------|
d--------------------------------------|x3
a--------------------------------------|
E--------------------------------------|
now the next bit is a little riff before the chorus just before it.
Pre-Chorus
e-013013010130130--|
b------------------|
g------------------|
d------------------|
a------------------|
E------------------|
Chorus.
e-------------------------------------------------------------|
b-------------------------------------------------------------|
g-7-----10---7-----10---7---5---7---10---7---10---7---5---7---|
d-7-x4--10x4-7-x4--10x4-7x8-5x8-7x4-10x4-7x4-10x4-7x8-5x8-7x8-|
a-5-----8----5-----8----5---3---5---8----5---8----5---3---5---|
E-------------------------------------------------------------|

This a riff before the verse count to 4 before playing this after the chorus.

e-11111111-00000000-00000000-00000000-|
b-33333333-33333333-11111111-00000000-|

then play the the bit after the drums come in but only once then back to this riff then 
to the bit after the drums then go to the verse.

then do the chorus again but when doin the fast bit 3 times. and thats it.

Intro
Cool Riff After Drums
Verse
Pre-Chorus
Chorus
Pre-Verse?
Chorus
End
Tap to rate this tab
# A B C D E F G H I J K L M N O P Q R S T U V W X Y Z