Song name
# A B C D E F G H I J K L M N O P Q R S T U V W X Y Z

Skillet - Imperfection tab

Song: Imperfection
Band: Skillet
Album: Collide
Written by: John Cooper
Copyright: 2003 Ardent records
Tabbed by: Extreme_je5u5freak@yahoo.com
           _
This is 99.9% accurate. It might be a little hard to get the timing right
becuase it was made as a powertab. I would recommend checking out the powertab.

Intro/verse
  Gtr1
||----------------------|---------------------|
||o---------------------|---------------------|
||----------------------|---------------------|
||--5-5-5-x-3-3-x-6-x-x-|-5-5-5-x-3-3-x-6-x-x-|
||o-3-3-3-x-3-3-x-3-x-x-|-3-3-3-x-3-3-x-3-x-x-|
||--3-3-3-x-3-3-x-3-x-x-|-3-3-3-x-3-3-x-3-x-x-|

                                               3x
|---------------------|------------------------||
|---------------------|-----------------------o||
|---------------------|------------------------||
|-5-5-5-x-3-3-x-6-x-x-|-5-5-5-x-3-3-x-6-x-x----||
|-4-4-4-x-4-4-x-4-x-x-|-4-4-4-x-4-4-x-4-x-x---o||
|-6-6-6-x-6-6-x-6-x-x-|-6-6-6-x-6-6-x-6-x-x----||


Prechorus:
 Gtr1
|--------------------------|---------------------|
|--------------------------|---------------------|
|--------------------------|---------------------|
|--6-6-6-x--6-6-x---6--x-x-|-5-5-5-x-5-5-x-5-x-x-|
|--6-6-6-x--6-6-x---6--x-x-|-6-6-6-x-6-6-x-6-x-x-|
|--6-6-6-x--6-6-x---6--x-x-|-5-5-5-x-5-5-x-5-x-x-|
|
| Gtr2
|--------------------------|---------------------|
|--------------------------|---------------------|
|-13-------12-----(12)-----|-8-------------------|
|--------------------------|---------------------|
|-11-------10-----(10)-----|-6-------------------|
|--------------------------|---------------------|

   Gtr1
|--------------------------|------------------|
|--------------------------|------------------|
|--------------------------|------------------|
|--6-6-6-x--6-6-x---6--x-x-|--6-6-6-6-3-3-3-3-|
|--4-4-4-x--4-4-x---4--x-x-|--4-4-4-4-3-3-3-3-|
|--3-3-3-x--3-3-x---3--x-x-|--3-3-3-3-3-3-3-3-|
| | Gtr2
|--------------------------|------------------|
|--------------------------|------------------|
|-13-------12-----(12)-----|-10---------------|
|--------------------------|------------------|
|-11-------10-----(10)-----|--8---------------|
|--------------------------|------------------|


CHORUS:

    Gtr I/2
||--------------------------|------------------------|
||o-------------------------|------------------------|
||-----------------5-5-5-5--|-5-6-6-6-5-6-6-6--------|
||--3-3-3-1-6-5-3--5-5-5-5--|-5-6-6-6-5-6-6-6-1-1-1--|
||o-3-3-3-1-6-5-3--3-3-3-3--|-3-4-4-4-3-4-4-4-1-1-1--|
||--3-3-3-1-6-5-3-----------|-----------------1-1-1--|
|

|--------------------------------|------------------------------------||
|--------------------------------|-----------------------------------o||
|--------------------------------|------------------------------------||
|-3-3-3-1-6-5-3--10-10-10-10-10--|-10-11-11-11-11-11-11-10-8-6-8-6-5--||
|-3-3-3-1-6-5-3--10-10-10-10-10--|-10-11-11-11-11-11-11-10-8-6-8-6-5-o||
|-3-3-3-1-6-5-3--10-10-10-10-10--|-10-11-11-11-11-11-11-10-8-6-8-6-5--||

||---------------------------------|-----------------------------------||
||o--------------------------------|----------------------------------o||
||------------10-10-10-8-8-5-5-8\--|-----------10-10-10-8-8-8-13-12\---||
||--3-3-x-3-3----------------------|-3-3-x-3-3-------------------------||
||o-3-3-x-3-3--8--8--8-6-6-3-3-6\--|-3-3-x-3-3--8--8--8-6-6-6-11-10\--o||
||--3-3-x-3-3----------------------|-3-3-x-3-3-------------------------||
|
Tap to rate this tab
 
# A B C D E F G H I J K L M N O P Q R S T U V W X Y Z