Song name
# A B C D E F G H I J K L M N O P Q R S T U V W X Y Z

Skillet - Saturn tab

Intro:
D - A - Bm - G (x2)


Verse 1:
D         A           Bm         G
 I ask him when will I be free he said I am
D          A           Bm             G          F              C
 Asking him when will I change he said no matter now, no matter now


Chorus:
F             C
 Saturn has a ring around it
Dm             Bb
 You can never see it with your eyes
F             C
 Saturn has a ring around it
Dm          Bb              G   A
 Many moons know this to be true


Verse 2:
D           A           Bm         G
 You ask him how can you be real he said you'll be
D           A          Bm          G          F             C
 Knowing him how you do now he says rest in this, rest in this


Chorus


Solo:
E----------------------------------------|
B------5--7--------5---------------------|
G---7--------6--7-----4--6--7-----4------|
D------------------------------7-----7---|
A----------------------------------------|
E----------------------------------------|
   D        A        Bm       G

E---------------------------------------------------------------|
B------5--7--------5--------------------------------------------|
G---7--------6--7-----4--6--7-----4---------5--4----------------|
D------------------------------7-----7--7---------7--5------5---|
A--------------------------------------------------------7------|
E---------------------------------------------------------------|
   D        A        Bm       G         F            C


Chorus:
F             C
 Saturn has a ring around it
Dm             Bb
 You can never see it with your eyes
F             C
 Saturn has a ring around it
Dm          Bb
 Many moons know this to be
F             C
 Saturn has a ring around it
Dm             Bb
 You can never see it with your eyes
F             C
 Saturn has a ring around it
Dm          Bb
 Many moons know this to be

G             D
 Heaven has a ring around it
Em                 C
 The angels sing a song over you
G             D
 Heaven has a ring around you
Em                   C
 If you don't see it know that it's true
G             D
 Heaven has a ring around it
Em                 C
 The angels sing a song over you
G             D
 Heaven has a ring around you
Em                   C
 If you don't see it know that it's true

Em                   C
 If you don't see it know that it's true
Em                   C
 If you don't see it know that it's true
Em                   C
 If you don't see it know that it's true
Em                   C
 If you don't see it know that it's true
Em                   C
 If you don't see it know that it's true
Em                   C
 If you don't see it know that it's true

Em - C (repeat and fade to end)
Tap to rate this tab
# A B C D E F G H I J K L M N O P Q R S T U V W X Y Z