Song name
# A B C D E F G H I J K L M N O P Q R S T U V W X Y Z

Skillet - Open Wounds tab

e-----------------------------------|
b-----------------------------------|
g-------5------5----5-----5---------|
d-----5------5----5-----5-----------| Do this for verses
a---0-------------------------------|
D----------3----5-----0-------------|

e------------------------------------|
b------------------------------------|
g------------------------------------| And this for the chorus
d--7-7-xxxx-3-3-xxxx-0-0-0-0-0-0-0-0-|
a--7-7-xxxx-3-3-xxxx-0-0-0-0-0-0-0-0-|
D--7-7-xxxx-3-3-xxxx-0-0-0-0-0-0-0-0-|

Great band, I just figured this out like a day ago.
If you dont like it dont play it!!!
Skillet rocks by the way, I just saw them at creation fest and the lead singer/bass 
did a backflip off the drum stage.
Tap to rate this tab
# A B C D E F G H I J K L M N O P Q R S T U V W X Y Z