Song name
# A B C D E F G H I J K L M N O P Q R S T U V W X Y Z

Skillet - Stand tab

Dropped C# tuning:
C#,G#,C#,F#,A#,D#

I haven't figured out the picking part (the intro) yet, sorry
But the rest goes like this...


Pre-pre-chorus (I didn't know what to call it ;)

     P.M.
D#---------|
A#---------|
F#---------|
C#-0-00000-|
G#-0-00000-|
C#-0-00000-| x8


Pre-chorus
D#---------------------------------------------|
A#---------------------------------------------|
F#----8-8-8-----10-10-10-----8-8-8-------3-3-3-|
C#-00-8-8-8--00-8--8--8---00-6-6-6--000001-8-8-|
G#-00-6-6-6--00-8--8--8---00-6-6-6--000001-8-8-|
C#-00-x-x-x--00-x--x--x---00-x-x-x--00000x-x-x-| x2

Chorus
D#-------------------------|
A#-------------------------|
F#-----------3------8----8-|
C#-0-0-0-0-3-3-0-00-8-00-8-|
G#-0-0-0-0-3-1-0-00-6-00-6-|
C#-0-0-0-0-3-x-0-00-x-00-x-| x2

Verse
D#----------------------------------------|
A#----------------------------------------|
F#----------------------------------------|
C#-55-3-55-3-55-3-55-00-3-0-3-0-00-3-00-3-|
G#-55-3-55-3-55-3-55-00-3-0-3-0-00-3-00-3-|
C#-55-3-55-3-55-3-55-00-3-0-3-0-00-3-00-3-|

                     (hold out)
D#----------------------------------------|
A#----------------------------------------|
F#----------------------------------------|
C#-55-3-55-3-55-3-55-7--------------------|
G#-55-3-55-3-55-3-55-7--------------------|
C#-55-3-55-3-55-3-55-7--------------------|

Pre-pre-chorus
Pre-chorus x1/2
Chorus
Verse x2
Bridge

D#---------------------------------|
A#---------------------------------|
F#-7-10-12-14-12-10-x3/-10-12-7-10-| x2
C#---------------------------------|
G#---------------------------------|
C#---------------------------------|

Intro (picking)Listen to the cd for this
part they strum a single C# at times

Chorus x3
Pre-chorus x4
Tap to rate this tab
# A B C D E F G H I J K L M N O P Q R S T U V W X Y Z