Song name
# A B C D E F G H I J K L M N O P Q R S T U V W X Y Z

Skillet - Hey You I Love Your Soul tab

Hey you, I love your soul by Skillet
There are two guitar riffs in this song, the rest is guitar synth and keyboards.
The song is in the key of B
The guitar has heavy distortion

This is played in the intro and other parts of the song
e|--------x-x-x--x--x-|
B|--------x-x-x--x--x-|
G|--------x-x-x--x--x-|
D|-4-5-6--x-x-x--x--x-|
A|-2-3-4--x-x-x--x--x-|
E|--------x-x-x--x--x-|

This is the chorus
e|----------------------------|
B|----------------------------|
G|----------------------------|
D|-6-6-6-6-6--9-9-9-9-9-9-4-4-|
A|-4-4-4-4-4--7-7-7-7-7-7-2-2-|
E|----------------------------|

There you go!
It is very simple.
Listen to the song to find out when to play these.
Tap to rate this tab
# A B C D E F G H I J K L M N O P Q R S T U V W X Y Z