Song name
# A B C D E F G H I J K L M N O P Q R S T U V W X Y Z

Skillet - My Obsession Live tab

-------------------------------------------------------------------------------
			     My Obsession [Live] (Solo) - Skillet
-------------------------------------------------------------------------------
Tabbed by:BrokenFighter
Email:BrokenFighter@hotmail.com

Tuning:Drop D (They may play it in drop B, or something like that, but I play it in drop 
play it in whatever tuning you want. :D)

e|--------------------------------------------------------------------------|
B|--------------------------------------------------------------------------|
G|-----------------------------------7-9-7-9--9p7---9p7---9p7---9p7---------|
D|-7-9~9~9-9-7-9-~9-~9-9-7-9-~9-7-9------------7h9---7h9---7h9---7h9-~9\----|
A|--------------------------------------------------------------------------|
D|--------------------------------------------------------------------------|

e|-(10)-7-7-(12)-7-7-(10)-7-7-(12)-7-7-(10)-7-(12)-7-(12)b-(12)-(12)-(12)---|
B|--------------------------------------------------------------------------|
G|--------------------------------------------------------------------------|
D|--------------------------------------------------------------------------|
A|--------------------------------------------------------------------------|
D|--------------------------------------------------------------------------|

e|-(10)h(12)b-(12)-(12)-(12)-(10)7-----7------------------------------------|
B|--------------------------------(10)--(10)7-(10)7-----7-------------------|
G|-------------------------------------------------(10)--97~9---------------|
D|--------------------------------------------------------------------------|
A|--------------------------------------------------------------------------|
D|--------------------------------------------------------------------------|

e|--------------------------------------|
B|--------------------------------------|
G|--------------------------------------|
D|-7-9~9~9-9--7-9~9~9-9--7-9~9~9-9--ps--|
A|--------------------------------------|
D|--------------------------------------|

   NOTE: A) The \ near the beginning of the solo is a slide down the
            neck, not a specific note.
         B) This solo uses a Wah-Wah pedal very heavily, the solo will not
            sound right without one. :D
| /  slide up
| \  slide down
| h  hammer-on
| p  pull-off
| ~  vibrato
| +  harmonic
| x  Mute note
| b  Bend note
| ps Pick Slide
===============================================================================
Tap to rate this tab
# A B C D E F G H I J K L M N O P Q R S T U V W X Y Z