Guitaretab - guitar tabs
Song name
# A B C D E F G H I J K L M N O P Q R S T U V W X Y Z

Skillet - Hero tab

----------------------------------------------------------------------------
			     Hero - Skillet
----------------------------------------------------------------------------
Tabbed by: Cody Bennett
Email: Monkey082692@aol.com

I'm still working on this tab and Monster. I know the whole song, but its hard to stay 
long enough to tab out the whole song.

Tuning: Drop B

Intro

Lead Guitar: Ben
[ Tab from: http://www.guitaretab.com/s/skillet/186438.html ]
c#------------------------------------------------|
g#------------------------------------------------|
fb-7-7-9-9-10-10-9-9----12-12-10-10-9-9-----------|
b ------------------9-9---------------------------| x6 (Till 10 second time)
gb------------------------------------------------|
B ------------------------------------------------|
                               ^(Till here second time)
End of Intro

c#-10----10----|
g#----14----14-|
fb-------------|
b -------------|  or
gb-------------|
B -------------|

c#-------------|
g#-15-14-15-14-|
fb-------------|
b -------------|
gb-------------|
B -------------|

Rhythm Guitar: Korey
(palm mute this part)

c#------------------------------------------------|
g#------------------------------------------------|
fb------------------------------------------------|
b -4444-------------444---------------------------|
gb-4444-------------444---------------------------|
B -4444-------------444---------------------------|

| /  slide up
| \  slide down
| h  hammer-on
| p  pull-off
| ~  vibrato
| +  harmonic
| x  Mute note
============================================================================
Related for Hero tab
Advertisement will be closed in 10 seconds