Song name
# A B C D E F G H I J K L M N O P Q R S T U V W X Y Z

Skillet - Savior tab

This is a guitar tab for part of the song Savior by Skillet. It is
played in drop C and is played throughout the song and as a solo
at 3:25.

Key:

>>> = slide
   = sustain
h   = hammer on

 |       |       |       |        |       |       |       |        
|--------------------------------|0-----0---0-0-----0---0-0-0----0|
|------------------------0-------|0-----0---0-0-----0---0-0-0----0|
|--------------------------------|0-----0---0-0-----0---0-0-0----0|
|--------4h5---4-0---4-------4>>>|12----12--1212----12--121212--12|
|------2---------------------2>>>|10----10--1010----10--101010--10|
|2---------------------------2>>>|10----10--1010----10--101010--10|
 
 |       |       |       |        |       |       |       |        
|--------------------------------|--------------------------------|
|------------------------0-------|0-------0-0-------------0-0----0|
|--------------------------------|0-------0-0-0>>>2-------2-2----2|
|--------4h5---4-0---4-----------|7-------7-7-------------0-0----0|
|------2-------------------------|5-------5-5---------------------|
|2---------------------------0---|5-------5-5---------------------|
 
 |       |       |       |        |       |       |       |        
|--------------------------------|0-----0---0-0-----0---0-0-0----0|
|------------------------0-------|0-----0---0-0-----0---0-0-0----0|
|--------------------------------|0-----0---0-0-----0---0-0-0----0|
|--------4h5---4-0---4-------4>>>|12----12--1212----12--121212--12|
|------2---------------------2>>>|10----10--1010----10--101010--10|
|2---------------------------2>>>|10----10--1010----10--101010--10|
 
 |       |       |       |        |       |       |       |        
|--------------------------------|--------------------------------|
|------------------------0-------|0------------------------------|
|--------------------------------|0------------------------------|
|--------4h5---4-0---4-----------|7------------------------------|
|------2-------------------------|5------------------------------|
|2---------------------------0---|5------------------------------|
 
Created with TablEdit
Tap to rate this tab
 
# A B C D E F G H I J K L M N O P Q R S T U V W X Y Z