Song name
# A B C D E F G H I J K L M N O P Q R S T U V W X Y Z

Skillet - Monster tab

NAME:  Monster *INTRO*
BAND:  Skillet
ALBUM: Awake

BY: AudioDemon

This is an Intro to the new song, Monster but it's in STANDARD Tuning.

Intro
e|-------------|-------------|-------------|-----------|
B|-------------|-------------|-------------|-----------|
G|-------------|-------------|-------------|-----------|
D|-------------|-------------|-------------|-----------|
A|--------xx---|--------xx---|--------xx---|-----------|
E|--1-1-1-xx-0-|-4-4-43-xx-0-|--1-1-1-xx-0-|-4-6-3-1---|

Verse *x5
e|-------------|-------------|-------------|-----------|
B|-------------|-------------|-------------|-----------|
G|-------------|-------------|-------------|-----------|
D|--1-1-1-xx-0-|-4-4-43-xx-0-|--1-1-1-xx-0-|-4-6-3-1---|
A|--3-3-3-xx-0-|-6-6-65-xx-0-|--1-1-1-xx-0-|-6-8-5-3---|
E|--3-3-3-xx-0-|-6-6-65-xx-0-|--3-3-3-xx-0-|-6-8-5-3---|

If you figure out the Chorus or more to the song in STANDARD, email me and i will edit it!

Tap to rate this tab
 
# A B C D E F G H I J K L M N O P Q R S T U V W X Y Z