Song name
# A B C D E F G H I J K L M N O P Q R S T U V W X Y Z

Skillet - Awake And Alive tab

Toggle switch to rythmn tone on guitar
Key:
^= pull off
()= palm mute
E:--------------------------------------------------------------------------|
B:--------------------------------------------------------------------------|
G:-------------------------------------------9----------9-11-12-11-9-11)----|
D:-------5-7-9------12---10-9-10^9---------------(9-10-12-------------------|
A:--5-7-9-------9-10---------------12^10^9-10-------------------------------|
E:--------------------------------------------------------------------------|

E:------------12-14-15-14-12---------------------12-14-15-17-15-14----------|
B:----------12---------------------------------12---------------------------|
G:--11-12-14-----------------16-12-11--11-12-14-------------------16-12-11--|
D:--------------------------------------------------------------------------|
A:--------------------------------------------------------------------------|
E:--------------------------------------------------------------------------|


E:---------------------------------------------------------------17-19-20-19-|
B:-------------------------------------------------------17-19-20------------|
G:---11-12-14---11-12-14---12-14-16---14-16-17---16-17-19--------------------|
D:---------------------------------------------------------------------------|
A:---------------------------------------------------------------------------|
E:---------------------------------------------------------------------------|
Tap to rate this tab
 
# A B C D E F G H I J K L M N O P Q R S T U V W X Y Z