Song name
# A B C D E F G H I J K L M N O P Q R S T U V W X Y Z

Skillet - Its Not Me Its You tab

Song: It's Not Me It's You
Artist: Skillet
Album: Awake

Tuning: Drop D

Key:
Palm Mute          *
Hammer On          h
Pull Off           p
Slide              s
Let note ring      ~ 
         

======GUITAR=1======

Intro (0:03)
e|-------------------|------------------|
B|------12~----------|-----8~-----------|
G|------11~----------|-----7~-----------|
D|--9-9------4-4-4-4-|-5-5-----7-7-4-4--|
A|--9-9------4-4-4-4-|-5-5-----7-7-4-4--|
D|--9-9------4-4-4-4-|-5-5-----7-7-4-4--|

e|----------------|---------------|
B|----------------|---------------|
G|----------------|---------------| Play
D|--9-9---4-4-4-4-|-5-5---7-7-4-4--|  x2
A|--9-9---4-4-4-4-|-5-5---7-7-4-4--|
D|--9-9---4-4-4-4-|-5-5---7-7-4-4--|

Verse (0:20)
e|-------------------|-------------|
B|-------------------|-------------|
G|-------------------|-------------| Play
D|--5~--5--5----5----|-7~----9~----|  x3
A|--5~--555555555555-|-7~----9~----|
D|--5~--555555555555-|-7~----9~----|
         ** **** ***

e|--------------|-------------------|
B|--------------|-------------------|
G|--------------|-------------------|
D|--5~----7~----|----------------7--|
A|--5~----7~----|-5555555577777777--|
D|--5~----7~----|-5555555577777777--|
                  ********* slowly let off pm  

Chorus (0:42)
e|-------------------|------------------|
B|------12~----------|-----8~-----------|
G|------11~----------|-----7~-----------|
D|--9-9------4-4-4-4-|-5-5-----7-7-7-7--|
A|--9-9------4-4-4-4-|-5-5-----7-7-7-7--|
D|--9-9------4-4-4-4-|-5-5-----7-7-7-7--|

e|-------------------|------------------|
B|------12~----------|------------------|
G|------11~----------|------------------|
D|--9-9------4-4-4-4-|-5-5-5-5-7-7-7-7--|
A|--9-9------4-4-4-4-|-5-5-5-5-7-7-7-7--|
D|--9-9------4-4-4-4-|-5-5-5-5-7-7-7-7--|




e|-------------------|------------------|
B|------12~----------|-----8~-----------|
G|------11~----------|-----7~-----------|
D|--9-9------4-4-4-4-|-5-5-----7-7-7-7--|
A|--9-9------4-4-4-4-|-5-5-----7-7-7-7--|
D|--9-9------4-4-4-4-|-5-5-----7-7-7-7--|

e|------------------|--------------|
B|------------------|--------------|
G|------------------|--------------|
D|--5-5-5-5-7-7-7-7-|-5-5-5-5-4-4--|
A|--5-5-5-5-7-7-7-7-|-5-5-5-5-4-4--|
D|--5-5-5-5-7-7-7-7-|-5-5-5-5-4-4--|

Post-chorus (1:05) 
e|--------------|------------------|
B|--------------|------------------|
G|--------------|------------------| Play
D|--9-9---4-4---|-5-5-5-5-7-7-4-4--|  x2
A|--9-9---4-4---|-5-5-5-5-7-7-4-4--|
D|--9-9---4-4---|-5-5-5-5-7-7-4-4--|

Repeat Verse (1:16)

Chorus (1:38)
e|-------------------|------------------|
B|------12~----------|-----8~-----------|
G|------11~----------|-----7~-----------|
D|--9-9------4-4-4-4-|-5-5-----7-7-7-7--|
A|--9-9------4-4-4-4-|-5-5-----7-7-7-7--|
D|--9-9------4-4-4-4-|-5-5-----7-7-7-7--|

e|-------------------|------------------|
B|------12~----------|------------------|
G|------11~----------|------------------|
D|--9-9------4-4-4-4-|-5-5-5-5-7-7-7-7--|
A|--9-9------4-4-4-4-|-5-5-5-5-7-7-7-7--|
D|--9-9------4-4-4-4-|-5-5-5-5-7-7-7-7--|

e|-------------------|------------------|
B|------12~----------|-----8~-----------|
G|------11~----------|-----7~-----------|
D|--9-9------4-4-4-4-|-5-5-----7-7-7-7--|
A|--9-9------4-4-4-4-|-5-5-----7-7-7-7--|
D|--9-9------4-4-4-4-|-5-5-----7-7-7-7--|

e|------------------|-----------------|
B|------------------|-----------------|
G|------------------|-----------------|
D|--5-5-5-5-7-7-7-7-|-5-5-5-5-4-4-4-4-|
A|--5-5-5-5-7-7-7-7-|-5-5-5-5-4-4-4-4-|
D|--5-5-5-5-7-7-7-7-|-5-5-5-5-4-4-4-4-|
Bridge (2:00)
e|--------------------|--------------------|
B|--------------------|--------------------|
G|--------------------|--------------------|
D|--9h10p9p7h9-2-0--0-|-9h10p9p7h9-2-0--7--|
A|--9h10p9p7h9-2-0--0-|-9h10p9p7h9-2-0--7--|
D|--9h10p9p7h9-2-0--0-|-9h10p9p7h9-2-0--7--|

e|------------------|-----------------|-----------------|------------------|
B|------------------|-----------------|-----------------|------------------|
G|------------------|-----------------|-----------------|------------------| 
D|--5-5-5-5-5-5-5-5-|-9-9-9-9-9-9-9-9-|-0-0-0-0-0-0-0-0-|-2-2-2-2-2-2-2-2--|  
A|--5-5-5-5-5-5-5-5-|-9-9-9-9-9-9-9-9-|-0-0-0-0-0-0-0-0-|-2-2-2-2-2-2-2-2--|
D|--5-5-5-5-5-5-5-5-|-9-9-9-9-9-9-9-9-|-0-0-0-0-0-0-0-0-|-2-2-2-2-2-2-2-2--|

e|------------------|-----------------|-----------------|-------------------|
B|------------------|-----------------|-----------------|-------------------|
G|------------------|-----------------|-----------------|-------------------| 
D|--5-5-5-5-5-5-5-5-|-9-9-9-9-9-9-9-9-|-2-2-2-2-2-2-2-2-|-----------777777--|  
A|--5-5-5-5-5-5-5-5-|-9-9-9-9-9-9-9-9-|-2-2-2-2-2-2-2-2-|-5-5-5-5-7-777777--|
D|--5-5-5-5-5-5-5-5-|-9-9-9-9-9-9-9-9-|-2-2-2-2-2-2-2-2-|-5-5-5-5-7-777777--|        
                                                          * * * * * 

Chorus (2:35)
e|---------------|---------------|
B|--12~----------|--9~-----------|
G|--11~----------|--7~-----------|
D|-------4-4-4-4-|------7-7-7-7--|
A|-------4-4-4-4-|------7-7-7-7--|
D|-------4-4-4-4-|------7-7-7-7--|

e|-------------------|------------------|
B|------12~----------|------------------|
G|------11~----------|------------------|
D|--9-9------4-4-4-4-|-5-5-5-5-7-7-7-7--|
A|--9-9------4-4-4-4-|-5-5-5-5-7-7-7-7--|
D|--9-9------4-4-4-4-|-5-5-5-5-7-7-7-7--|

e|-------------------|------------------|
B|------12~----------|-----8~-----------|
G|------11~----------|-----7~-----------|
D|--9-9------4-4-4-4-|-5-5-----7-7-7-7--|
A|--9-9------4-4-4-4-|-5-5-----7-7-7-7--|
D|--9-9------4-4-4-4-|-5-5-----7-7-7-7--|

e|------------------|-----------------|
B|------------------|-----------------|
G|------------------|-----------------|
D|--5-5-5-5-7-7-7-7-|-5-5-5-5-4-4-4-4-|
A|--5-5-5-5-7-7-7-7-|-5-5-5-5-4-4-4-4-|
D|--5-5-5-5-7-7-7-7-|-5-5-5-5-4-4-4-4-|

Outro (2:56)
e|--------------|------------------|
B|--------------|------------------|
G|--------------|------------------| Play
D|--9-9---4-4---|-5-5-5-5-7-7-4-4--|  x4
A|--9-9---4-4---|-5-5-5-5-7-7-4-4--|
D|--9-9---4-4---|-5-5-5-5-7-7-4-4--|

End on
e|-----|
B|-----|
G|-----|
D|--9--|
A|--9--|
D|--9--|


======GUITAR=2======

Intro (0:09)
e|--14--|-------------15--|-15-14-12-15-14--|
B|------|-14-15-14-12-----|-----------------|
G|------|-----------------|-----------------|
D|------|-----------------|-----------------|
A|------|-----------------|-----------------|
D|------|-----------------|-----------------|

e|--------------15-|--15-14-12-----|
B|--14-15-14-12----|-----------15--|
G|-----------------|---------------|
D|-----------------|---------------|
A|-----------------|---------------|
D|-----------------|---------------|

Verse (0:20) Silent

Chorus (0:42)
e|-------------------|------------------|
B|------12~----------|-----8~-----------|
G|------11~----------|-----7~-----------|
D|--9-9------4-4-4-4-|-5-5-----7-7-7-7--|
A|--9-9------4-4-4-4-|-5-5-----7-7-7-7--|
D|--9-9------4-4-4-4-|-5-5-----7-7-7-7--|

e|-------------------|------------------|
B|------12~----------|------------------|
G|------11~----------|------------------|
D|--9-9------4-4-4-4-|-5-5-5-5-7-7-7-7--|
A|--9-9------4-4-4-4-|-5-5-5-5-7-7-7-7--|
D|--9-9------4-4-4-4-|-5-5-5-5-7-7-7-7--|


e|-------------------|------------------|
B|------12~----------|-----8~-----------|
G|------11~----------|-----7~-----------|
D|--9-9------4-4-4-4-|-5-5-----7-7-7-7--|
A|--9-9------4-4-4-4-|-5-5-----7-7-7-7--|
D|--9-9------4-4-4-4-|-5-5-----7-7-7-7--|

e|------------------|--------------|
B|------------------|--------------|
G|------------------|--------------|
D|--5-5-5-5-7-7-7-7-|-5-5-5-5-4-4--|
A|--5-5-5-5-7-7-7-7-|-5-5-5-5-4-4--|
D|--5-5-5-5-7-7-7-7-|-5-5-5-5-4-4--|

Post-chorus (1:05)
e|--10~--9-------------------|
B|---------10~--7-10s12-12~--|
G|---------------------------|
D|---------------------------|
A|---------------------------|
D|---------------------------|

Verse (1:16)
e|--7~----|
B|----7~--|
G|--------| Play
D|--------|  x6
A|--------|
D|--------|

e|--10~-----|-----9~--12~--|
B|-----10~--|--10~---------|
G|----------|--------------|
D|----------|--------------|
A|----------|--------------|
D|----------|--------------|

Chorus (1:38)
e|-------------------|------------------|
B|------12~----------|-----8~-----------|
G|------11~----------|-----7~-----------|
D|--9-9------4-4-4-4-|-5-5-----7-7-7-7--|
A|--9-9------4-4-4-4-|-5-5-----7-7-7-7--|
D|--9-9------4-4-4-4-|-5-5-----7-7-7-7--|

e|-------------------|------------------|
B|------12~----------|------------------|
G|------11~----------|------------------|
D|--9-9------4-4-4-4-|-5-5-5-5-7-7-7-7--|
A|--9-9------4-4-4-4-|-5-5-5-5-7-7-7-7--|
D|--9-9------4-4-4-4-|-5-5-5-5-7-7-7-7--|

e|-------------------|------------------|
B|------12~----------|-----8~-----------|
G|------11~----------|-----7~-----------|
D|--9-9------4-4-4-4-|-5-5-----7-7-7-7--|
A|--9-9------4-4-4-4-|-5-5-----7-7-7-7--|
D|--9-9------4-4-4-4-|-5-5-----7-7-7-7--|

e|------------------|-----------------|
B|------------------|-----------------|
G|------------------|-----------------|
D|--5-5-5-5-7-7-7-7-|-5-5-5-5-4-4-4-4-|
A|--5-5-5-5-7-7-7-7-|-5-5-5-5-4-4-4-4-|
D|--5-5-5-5-7-7-7-7-|-5-5-5-5-4-4-4-4-|

Bridge (2:00)
e|--------------------|--------------------|
B|--------------------|--------------------|
G|--------------------|--------------------|
D|--9h10p9p7h9-2-0--0-|-9h10p9p7h9-2-0--7--|
A|--9h10p9p7h9-2-0--0-|-9h10p9p7h9-2-0--7--|
D|--9h10p9p7h9-2-0--0-|-9h10p9p7h9-2-0--7--|

I think thereís some picking here, but I canít quite make it out.

Chorus (2:35)
e|---------------|---------------|
B|--12~----------|--9~-----------|
G|--11~----------|--7~-----------|
D|-------4-4-4-4-|------7-7-7-7--|
A|-------4-4-4-4-|------7-7-7-7--|
D|-------4-4-4-4-|------7-7-7-7--|

e|-------------------|------------------|
B|------12~----------|------------------|
G|------11~----------|------------------|
D|--9-9------4-4-4-4-|-5-5-5-5-7-7-7-7--|
A|--9-9------4-4-4-4-|-5-5-5-5-7-7-7-7--|
D|--9-9------4-4-4-4-|-5-5-5-5-7-7-7-7--|

e|-------------------|------------------|
B|------12~----------|-----8~-----------|
G|------11~----------|-----7~-----------|
D|--9-9------4-4-4-4-|-5-5-----7-7-7-7--|
A|--9-9------4-4-4-4-|-5-5-----7-7-7-7--|
D|--9-9------4-4-4-4-|-5-5-----7-7-7-7--|

e|------------------|-----------------|
B|------------------|-----------------|
G|------------------|-----------------|
D|--5-5-5-5-7-7-7-7-|-5-5-5-5-4-4-4-4-|
A|--5-5-5-5-7-7-7-7-|-5-5-5-5-4-4-4-4-|
D|--5-5-5-5-7-7-7-7-|-5-5-5-5-4-4-4-4-|

Outro (3:08)
e|--14--|-------------15--|-15-14-12-15-14--|
B|------|-14-15-14-12-----|-----------------|
G|------|-----------------|-----------------|
D|------|-----------------|-----------------|
A|------|-----------------|-----------------|
D|------|-----------------|-----------------|

e|--------------15-|--15-14-12-15-14--|
B|--14-15-14-12----|------------------|
G|-----------------|------------------|
D|-----------------|------------------|
A|-----------------|------------------|
D|-----------------|------------------|
Tap to rate this tab
# A B C D E F G H I J K L M N O P Q R S T U V W X Y Z