Song name
# A B C D E F G H I J K L M N O P Q R S T U V W X Y Z

Skillet - Hero tab

Song - Hero
Artist - Skillet
Album - Awake
Tuning - Drop Db/C#

Palm Mute - ......
Tremolo Picking - ****
Slide - s
Pull off - p

There was already like 5 tabs for this but they were all were a little off. 
Please Rate/Comment


Intro - Guitar 2
eb|----------------------5-5-----------------|
Bb|--5-5-7-7-8-8-7-7---------8-8-7-7---------|
Gb|------------------7-7---------------------|
Db|------------------------------------------|
Ab|------------------------------------------|
Db|------------------------------------------|6x

Intro - Guitar 1
eb|------------------------------------------------------------|
Bb|------------------------------------------------------------|
Gb|------------------------------------------------------------|
Db|--2-2-2-2-2-2-2-2-5-5-5-5-0-0-0-0--2-2-2-2-2-2-2-2----5s7---|
Ab|--2-2-2-2-2-2-2-2-5-5-5-5-0-0-0-0--2-2-2-2-2-2-2-2----3s5---|
Db|--2-2-2-2-2-2-2-2-5-5-5-5-0-0-0-0--2-2-2-2-2-2-2-2----------|2x

Pre Verse - Guitar 1
eb|--8--8--8---------------------------------|
Bb|---12-12-12-------------------------------|
Gb|------------------------------------------|
Db|------------------------------------------|
Ab|------------------------------------------|
Db|------------------------------------------|

Pre Verse - Guitar 2
eb|------------------------------------------|
Bb|------------------------------------------|
Gb|------------------------------------------|
Db|--2-2-2-2-2-2p0---------------------------|
Ab|--2-2-2-2-2-2p0---------------------------|
Db|--2-2-2-2-2-2p0---------------------------|
     . . . . . 

Verse 1 - Guitar 1
eb|-----------------------------------------------------------|
Bb|-----------------------------------------------------------|
Gb|-----------------------------------------------------------|
Db|--2-2-2-2--------------------------------------------------|
Ab|--2-2-2-2-3-2-------------------2---3-2--------------------|
Db|--2-2-2-2-----4-4-5-5-4-4-5-5--2--2-----4-4-5-5-4-4-0------|
     . . . .     * * * * * * * *           * * * * * * .

Verse 1 - Guitar 1
eb|-----------------------------------------------------------|
Bb|-----------------------------------------------------------|
Gb|-----------------------------------------------------------|
Db|--2-2-2-2--------------------------------------------------|
Ab|--2-2-2-2-3-2--------------------2---3-2-------------------|
Db|--2-2-2-2--------------4-4-5-5--2--2-----4-4-5-5-4-4-0-----|
     . . . .              * * * *           * * * * * * .


Pre Chorus - Guitar 1
eb|-----------------------------------------------------------|
Bb|-----------------------------------------------------------|
Gb|--2-2--2-2-2-2-5--5-5-5-5-5-5-5----------------------------|
Db|--2-2--2-2-2-2-5--5-5-5-5-5-5-5--2-2-2-2-----2-2-2---------|
Ab|--0-0--0-0-0-0-3--3-3-3-3-3-3-3--2-2-2-2-3-2-2-2-2-3-2-----|
Db|---------------------------------2-2-2-2-----2-2-2---------|
                                    . . . .     . . .
Pre Chorus - Guitar 1
eb|-----------------------------------------------------------|
Bb|-----------------------------------------------------------|
Gb|--2-2--2-2-2-2-5--5-5-5-5-5-5-5----------------------------|
Db|--2-2--2-2-2-2-5--5-5-5-5-5-5-5--2-2-2-2------2-2-2--5-----|
Ab|--0-0--0-0-0-0-3--3-3-3-3-3-3-3--2-2-2-2-3-2--2-2-2--5-----|
Db|---------------------------------2-2-2-2------2-2-2--5-----|
                                    . . . .      . . .
Chorus - Guitar 1
eb|------------------------------------------------------------|
Bb|------------------------------------------------------------|
Gb|------------------------------------------------------------|
Db|--2-2-2-2-2-2-2-2-5-5-5-5-0-0-0-0--2-2-2-2-2-2-2-2----5s7---|
Ab|--2-2-2-2-2-2-2-2-5-5-5-5-0-0-0-0--2-2-2-2-2-2-2-2----3s5---|
Db|--2-2-2-2-2-2-2-2-5-5-5-5-0-0-0-0--2-2-2-2-2-2-2-2----------|2x


Chorus - Guitar 2
eb|----------------------5-5-----------------|
Bb|--5-5-7-7-8-8-7-7---------8-8-7-7---------|
Gb|------------------7-7---------------------|
Db|------------------------------------------|
Ab|------------------------------------------|
Db|------------------------------------------|4x

Verse 2 - Guitar 1
eb|-----------------------------------------------------------|
Bb|-----------------------------------------------------------|
Gb|-----------------------------------------------------------|
Db|--2-2-2-2--------------------------------------------------|
Ab|--2-2-2-2-3-2-------------------2---3-2--------------------|
Db|--2-2-2-2-----4-4-5-5-4-4-5-5--2--2-----4-4-5-5-4-4-0------|2x
     . . . .     * * * * * * * *           * * * * * * .
Pre Chorus - Guitar 1
eb|-----------------------------------------------------------|
Bb|-----------------------------------------------------------|
Gb|--2-2--2-2-2-2-5--5-5-5-5-5-5-5----------------------------|
Db|--2-2--2-2-2-2-5--5-5-5-5-5-5-5--2-2-2-2-----2-2-2---------|
Ab|--0-0--0-0-0-0-3--3-3-3-3-3-3-3--2-2-2-2-3-2-2-2-2-3-2-----|
Db|---------------------------------2-2-2-2-----2-2-2---------|
                                    . . . .     . . .
Pre Chorus - Guitar 1
eb|-----------------------------------------------------------|
Bb|-----------------------------------------------------------|
Gb|--2-2--2-2-2-2-5--5-5-5-5-5-5-5----------------------------|
Db|--2-2--2-2-2-2-5--5-5-5-5-5-5-5--2-2-2-2------2-2-2--5-----|
Ab|--0-0--0-0-0-0-3--3-3-3-3-3-3-3--2-2-2-2-3-2--2-2-2--5-----|
Db|---------------------------------2-2-2-2------2-2-2--5-----|
                                    . . . .      . . .
Chorus - Guitar 1
eb|------------------------------------------------------------|
Bb|------------------------------------------------------------|
Gb|------------------------------------------------------------|
Db|--2-2-2-2-2-2-2-2-5-5-5-5-0-0-0-0--2-2-2-2-2-2-2-2----5s7---|
Ab|--2-2-2-2-2-2-2-2-5-5-5-5-0-0-0-0--2-2-2-2-2-2-2-2----3s5---|
Db|--2-2-2-2-2-2-2-2-5-5-5-5-0-0-0-0--2-2-2-2-2-2-2-2----------|2x


Chorus - Guitar 2
eb|----------------------5-5-----------------|
Bb|--5-5-7-7-8-8-7-7---------8-8-7-7---------|
Gb|------------------7-7---------------------|
Db|------------------------------------------|
Ab|------------------------------------------|
Db|------------------------------------------|4x

Chorus - Guitar 1
eb|------------------------------------------------------------|
Bb|------------------------------------------------------------|
Gb|------------------------------------------------------------|
Db|--2-2-2-2-2-2-2-2-5-5-5-5-0-0-0-0--2-2-2-2-2-2-2-2----5s7---|
Ab|--2-2-2-2-2-2-2-2-5-5-5-5-0-0-0-0--2-2-2-2-2-2-2-2----3s5---|
Db|--2-2-2-2-2-2-2-2-5-5-5-5-0-0-0-0--2-2-2-2-2-2-2-2----------|2x

Pre Brige - Guitar 1
eb|------------------------------------------------------------|
Bb|------------------------------------------------------------|
Gb|------------------------------------------------------------|
Db|--2-2-2----------------------------2-2-2----2-2-2-2-2-2-----|
Ab|--2-2-2----------------------------2-2-2----2-2-2-2-2-2-----|
Db|--2-2-2----------------------------2-2-2----2-2-2-2-2-2-----|
     . . .                            . . .    . . . . . .

Pre Bridge - Guitar 2
eb|----------------------5-5-----------------|
Bb|--5-5-7-7-8-8-7-7---------8-8-7-7---------|
Gb|------------------7-7---------------------|
Db|------------------------------------------|
Ab|------------------------------------------|
Db|------------------------------------------|2x

Bridge - Guitar 1
eb|------------------------------------------------------------|
Bb|------------------------------------------------------------|
Gb|-2-2-2-2-2-2-2-5-5-5-5-5-5-5--------------------------------|
Db|-2-2-2-2-2-2-2-5-5-5-5-5-5-5-2-2-2-2-2-2-2-2-0-0-0-0-0-0-0-0|
Ab|-0-0-0-0-0-0-0-3-3-3-3-3-3-3-2-2-2-2-2-2-2-2-0-0-0-0-0-0-0-0|
Db|-----------------------------2-2-2-2-2-2-2-2-0-0-0-0-0-0-0-0|3x

Bridge - Guitar 1
eb|------------------------------------------------------------|
Bb|------------------------------------------------------------|
Gb|--5-5-5-5-5-5-5-5-7-7-7-7-8-8-8-8---------------------------|
Db|--5-5-5-5-5-5-5-5-7-7-7-7-9-9-9-9---------------------------|
Ab|--3-3-3-3-3-3-3-3-5-5-5-5-6-6-6-6---------------------------|
Db|------------------------------------------------------------|

Pre Chorus - Guitar 1
eb|------------------------------------------------------------|
Bb|------------------------------------------------------------|
Gb|------------------------------------------------------------|
Db|--2-2-2----------------------------2-2-2----2-2-2-2-2-2-----|
Ab|--2-2-2----------------------------2-2-2----2-2-2-2-2-2-----|
Db|--2-2-2----------------------------2-2-2----2-2-2-2-2-2-----|
     . . .                            . . .    . . . . . .
Pre Chorus - Guitar 2
eb|----------------------5-5-----------------|
Bb|--5-5-7-7-8-8-7-7---------8-8-7-7---------|
Gb|------------------7-7---------------------|
Db|------------------------------------------|
Ab|------------------------------------------|
Db|------------------------------------------|2x

Chorus - Guitar 1
eb|------------------------------------------------------------|
Bb|------------------------------------------------------------|
Gb|------------------------------------------------------------|
Db|--2-2-2-2-2-2-2-2-5----------------2-2-2-2-2-2-2-2----5s7---|
Ab|--2-2-2-2-2-2-2-2-5----------------2-2-2-2-2-2-2-2----3s5---|
Db|--2-2-2-2-2-2-2-2-5----------------2-2-2-2-2-2-2-2----------|

Chorus - Guitar 1
eb|------------------------------------------------------------|
Bb|------------------------------------------------------------|
Gb|------------------------------------------------------------|
Db|--2-2-2-2-2-2-2-2-5-5-5-5-0-0-0-0--2-2-2-2-2-2-2-2----5s7---|
Ab|--2-2-2-2-2-2-2-2-5-5-5-5-0-0-0-0--2-2-2-2-2-2-2-2----3s5---|
Db|--2-2-2-2-2-2-2-2-5-5-5-5-0-0-0-0--2-2-2-2-2-2-2-2----------|2x


Chorus - Guitar 1
eb|------------------------------------------------------------|
Bb|------------------------------------------------------------|
Gb|------------------------------------------------------------|
Db|--2-2-2-2-2-2-2-2-5-5-5-5-0-0-0-0--2-2-2-2-2-2-2-2----5---7-|
Ab|--2-2-2-2-2-2-2-2-5-5-5-5-0-0-0-0--2-2-2-2-2-2-2-2----3---5-|
Db|--2-2-2-2-2-2-2-2-5-5-5-5-0-0-0-0--2-2-2-2-2-2-2-2----------|2x

Chorus - Guitar 2
eb|----------------------5-5-----------------|
Bb|--5-5-7-7-8-8-7-7---------8-8-7-7---------|
Gb|------------------7-7---------------------|
Db|------------------------------------------|
Ab|------------------------------------------|
Db|------------------------------------------|4x

Outro - Guitar 
eb|------------------------------------------------------------|
Bb|------------------------------------------------------------|
Gb|------------------------------------------------------------|
Db|--2-2--2-2--2-2--5-5--0-0--2-2-5p2-5p2-0-2-2--2-2--2-2------|
Ab|--2-2--2-2--2-2--5-5--0-0--2-2-5p2-5p2-0-2-2--2-2--2-2------|
Db|--2-2--2-2--2-2--5-5--0-0--2-2-5p2-5p2-0-2-2--2-2--2-2------|


Tabbed by Aaron Van Ee
Tap to rate this tab
 
# A B C D E F G H I J K L M N O P Q R S T U V W X Y Z