Song name
# A B C D E F G H I J K L M N O P Q R S T U V W X Y Z

Skillet - Lucy chords

Highlighted       Show chord diagrams
alright juss to get things clear here's the first part when they pick the 1st verse and 
repeat twice on each time you pick one chord, so like right here with 3-2-3-3 you would 
that one more time then switch and do the same with that chord. to guide u here are the words
(hey lucy i remember your name, left a dozen roses on ur grave today)..

   e--------3-----------3-----------------------------------------|
   b---------3-----------3----------------------------------------|
   g--------------------------------------------------------------| (x2)
   d-----------------2--------------------------------------------|
   a------2--------3----------------------------------------------|
   E-----3--------------------------------------------------------|

    im in the grass on my knees..    juss came to tlk for awhile..

   |----0-----0------2------2--- ----0------2-------3----3-------------------|
   |-----0-----0----3--3- -3--3- -----0----3-3-------3----3------------------|
   |---------------2------2----- ---------2----------------------------------|
   |--2------2------------------ ---2-------------2-----2--------------------|
   |-2------2------------------- --2-------------3-----3---------------------|
   |---------------------------- --------------------------------------------|

     then juss do these both parts all over again for the chorus, it really helps if u 
for the changes of chords while picking them. dont freak on the 2-3-2-3 part on this 
part, juss play it slowly and listen to the song for changes..anyways here's the rest
(WITH CADD9 PUT PINKI ON E, SAME GOES FOR G)

G                               Cadd9
hey lucy i remember you birthday
G                                                Cadd9
they said id bring some closure, to say your name
Em                                               D
i know id do it all different if i had the chance
Em                      D                  C
but all i got are these roses to give, and they cant help me make amends
G                  Cadd9
now that its over, i just wanna hold her
Em                 D                  Cadd9
id give up all the world to see, that little piece of heaven lookin back at me
Em                D
now that its over, i just wanna hold her
Em                    D                   Cadd9
i gotta live with the choices i made, and i cant live with myself today

Bridge (this time with Cadd9 dont use ur pinki on E

Em
here we are now your in my arms
D
i never wanted anything so bad
Em
here we are for a brand new start
D
living the life that we could've had
Em
me and lucy walkin hand in hand
Cadd9
me and lucy never wanna end!
Em                                                               D
just another moment in your eyes, ill see you in another life in heaven! where we 
never say goodbye!!!

                            chorus (now use pinki on Cadd9)
G
now that its over
Cadd9
i just wanna hold her
Em                 D
id give up all the world to see
     Cadd9
that little piece of heaven lookin back at me
Em
now that its over
D
i juss wanna hold her
Em                    D                  Cadd9                
     G
i gotta live with the choices i made and i cant live with myslef today

here we are now your in my arms
Cadd9
here we are for a brand new start
Em                    D                                             G
i gotta live with the choices i made and i cant live with myself today

me and lucy walkin hand in hand(today)
Cadd9
me and lucy never wanna end [like this tab ;)
Em                    D                  Cadd9              D
i gotta live with the choices i made and i cant live with myself.... today
                             G
hey lucy i remember your name
Tap to rate this tab
# A B C D E F G H I J K L M N O P Q R S T U V W X Y Z