Song name
# A B C D E F G H I J K L M N O P Q R S T U V W X Y Z

Skillet - Rebirthing Acoustic tab

PLEASE RATE!!!

Chords used:
   A#m  G#m  F#m  Fm   Cm   C#m
E:--6----4----2----1----8-----9----|
B:--6----4----2----1----8-----9----|
G:--6----4----2----1----8-----9----|
D:--8----6----4----3----10----11---|
A:--8----6----4----3----10----11---|
E:--6----4----2----1----8-----9----|

Intro #1:

E:--6-6-6-6--6-6-6-6--6~---4-4-4-4--2-2-2-2--1~|
B:--6-6-6-6--6-6-6-6--6~---4-4-4-4--2-2-2-2--1~|
G:--6-6-6-6--6-6-6-6--6~---4-4-4-4--2-2-2-2--1~|       (X4)
D:--8-8-8-8--8-8-8-8--8~---6-6-6-6--4-4-4-4--3~|
A:--8-8-8-8--8-8-8-8--8~---6-6-6-6--4-4-4-4--3~|
E:--6-6-6-6--6-6-6-6--6~---4-4-4-4--2-2-2-2--1~|

Intro #2:

E:--13----13-14-13-11-13----16-11-13----13-14-13-11-13---13-16-18~
B:-----11----------------11----------11----------------11--------~    (X2)
G:---------------------------------------------------------------~

Verse 1:
A#m       G#m         F#m     Fm           A#m
       I lie here paralytic, inside this soul.
          G#m         F#m     Fm           A#m
       Screaming for you till, my throat is numb!
         A#m                G#m
       I wanna break out, I need a way out!
         F#m                      Fm
       I don't believe that it's gotta be this way!
A#m                G#m          F#m                F5
       The worst is the waiting! in this world I'm suffocating!

Pre-chorus:
  A#5              Cm                                 F#m
       I feel your presence, filling up my lungs with oxygen.
                  G#m       F#m  G#m  A#m  C#m
       I take you in...I've died!!!

Chorus:
    Cm        C#m           G#m
  Rebirthing now!!! I wanna live for love
          F#m              A#m            G#m
  I wanna live for you and me!
                           Breath for the first time now,
  F#m            Fm
  I came alive somehow.
    Cm       C#m           G#m
  Rebirthing now!!! I wanna live my life
          F#m        A#m          G#m
  I wanna give everything
                   Breath for the first time now,
  F#m            Fm       F#m  G#m
  I came alive somehow.
        A#m          G#m  F#m  Fm
  Right now!
        A#m          G#m  F#m  Fm
  Right now!


Verse 2:
A#m             G#m    F#m      Fm  A#m
    I lie here lifeless in this cacoon,
    G#m         F#m        Fm
    shedding my skin cause I'm ready to.
A#m                 G#m
    I wanna break out, I found a way out!
      F#m                   Fm
    I don't believe that it's gotta be this way.
A#m              G#m         F#m                Fm
    The worst is the waiting in this world, I am suffocating!

Pre-chorus:
  A#5              Cm                                 F#m
       I feel your presence, filling up my lungs with oxygen.
                  G#m       F#m  G#m  A#m  C#m
       I take you in...I've died!!!

Chorus:
    Cm        C#m           G#m
  Rebirthing now!!! I wanna live for love
          F#m              A#m            G#m
  I wanna live for you and me!
                           Breath for the first time now,
  F#m            Fm
  I came alive somehow.
    Cm       C#m           G#m
  Rebirthing now!!! I wanna live my life
          F#m        A#m          G#m
  I wanna give everything
                   Breath for the first time now,
  F#m            Fm       F#m  G#m
  I came alive somehow.

Bridge:
A#m               Cm           C#m
  Tell me when I'm gonna breath again!
G#m               F#m          Fm
  Tell me when I'm gonna breath you in!
A#m               Cm           C#m
  Tell me when I'm gonna feel inside!
G#m               F#m          Fm
  Tell me when I'm gonna feel alive!

Solo:

E:---------------------8~~-9/8~~---------------------------------|
B:-------6-7-6-9~~-7-6-----------6-7-6---------6-7-6-------6-7-9-|
G:-5-6-8-------------------------------6-5-6-8-------8-6-8-------|
D:---------------------------------------------------------------|
A:---------------------------------------------------------------|
E:---------------------------------------------------------------|

E:-6-8-9-11-9-13----13/14/13--16/18/16~~-16~~-16~~---------------|
B:---------------11----------------------------------------------|
G:---------------------------------------------------------------|
D:---------------------------------------------------------------|
A:---------------------------------------------------------------|
E:---------------------------------------------------------------|

  A#m               Cm           C#m
  Tell me when I'm gonna breath again!
G#m               F#m          Fm
  Tell me when I'm gonna breath you in!
A#m               Cm           C#m
  Tell me when I'm gonna feel inside!
G#m               F#m          Fm
  Tell me when I'm gonna feel alive!

E:------------------------------------2-4-6-8---~|
B:------------------------------------2-4-6-8---~|
G:------------------------------------2-4-6-8---~|
D:------------------------6-4-3-4-3---4-6-8-10--~|
A:----3---4-6-4-3-4---3-4----------4--4-6-8-10--~|
E:--3---4-----------3-----------------2-4-6-8---~|

Chorus:
    Cm        C#m           G#m
  Rebirthing now!!! I wanna live for love
          F#m              A#m            G#m
  I wanna live for you and me!
                           Breath for the first time now,
  F#m            Fm
  I came alive somehow.
    Cm       C#m           G#m
  Rebirthing now!!! I wanna live my life
          F#m        A#m          G#m
  I wanna give everything
                   Breath for the first time now,
  F#m            Fm       F#m  G#m
  I came alive somehow.
        A#m  Cm  C#m  G#m  F#m Cm
  Right now!!!
  G#m  F#m Fm     A#m  Cm  C#m
  I came alive somehow
                Right now!!!
  G3m  F#m Fm
  I came alive somehow!!!

  THE END

Tabber: Robby Sheets
Age: 16
Tap to rate this tab
# A B C D E F G H I J K L M N O P Q R S T U V W X Y Z