Song name
# A B C D E F G H I J K L M N O P Q R S T U V W X Y Z

Skillet - Would It Matter chords

-------------------------------------------------------------------------------
        Would it Matter - Skillet
-------------------------------------------------------------------------------
Tabbed by: elyk 44
Email: elyk44@hotmail.com
Tuning: Half a Step down

My first tab EVER! So give me your comments!

Intro(Optional):
eb|---------------------------------9------------------4-------------------|
Bb|---10------------7------------------------------------------------------|
Gb|------------------------------------------------------------------------|
Db|------------------------------------------------------------------------|
Ab|------------------------------------------------------------------------|
Eb|------------------------------------------------------------------------|

Verses:
eb|---------------------------------------------------------------------------|
Bb|---------------------------------------------------------------------------|
Gb|--------6-----4------6------4-----6----4------------6-----4--------6-----4-|
Db|------------------0------------------------------------------0-------------|
Ab|-------------------------------0-------------------------------------------|
Eb|---2---------------------------------------0-----2-------------------------|

eb|------------------------------------------------------------------------|
Bb|------------------------------------------------------------------------|
Gb|---------2----4-------6------4------------------------------------------|
Db|------------------------------------------------------------------------|
Ab|----0-------------------------------------------------------------------|
Eb|------------------0-----------------------------------------------------|

Pre-Chorus(palm Muted):
eb|------------------------------------------------------------------------|
Bb|------------------------------------------------------------------------|
Gb|-----7----9----11---9----7----9-----------------------------------------|
Db|-----7----9----11---9----7----9----9------------------------------------|
Ab|-----5----7----9----7----5----7----9------------------------------------|
Eb|-----------------------------------7------------------------------------|

Chorus:         
eb|------------------------------------------------------------------------|
Bb|-------------------------------------------------------3----------------|
Gb|--------7----2----1--------7---2---1-------7---2---1---2--1-------------|
Db|---4----7----2----2---4----7---2---2---4---7---2---2---0--2-------------|
Ab|---4----5----0----2---4----5---0---2---4---5---0---2------2-------------|
Eb|---2--------------0---2------------0---2-----------0------0-------------|

Solo (2x):
eb|--------7----9----10~~--12----10---9~~-----10---9---7-------------------|
Bb|---10~~-------------------------------------------------9--10-----------|
Gb|------------------------------------------------------------------------|
Db|------------------------------------------------------------------------|
Ab|------------------------------------------------------------------------|
Eb|------------------------------------------------------------------------|

Final Pre-Chorus:
eb|---------------------------------------------------------------------------|
Bb|---------------------------------------------------------------------------|
Gb|-----------7----------9----------11------------9-----------7------------9--|
Db|--------7----7-----9----9-----11-----11-----9-----9-----7-----7------9-----|
Ab|-----5----------7----------9-------------7-----------5------------7--------|
Eb|---------------------------------------------------------------------------|

eb|------------------------------------------------------------------------|
Bb|------------------------------------------------------------------------|
Gb|------------------------------------------------------------------------|
Db|--9----9----------------------------------------------------------------|
Ab|-------9-(start palm muting and then release gradually)-----------------|
Eb|-------7----------------------------------------------------------------|



Outro:
eb|------------------------------------------------------------------------|
Bb|------------------------------------------------------------------------|
Gb|--------6-----4------6------4-----2----4--------6----4------------------|
Db|---4--------------0--------------------------6--------------------------|
Ab|-------------------------------0----------4-----------------------------|
Eb|------------------------------------------------------------------------|



===============================================================================
Tap to rate this tab
# A B C D E F G H I J K L M N O P Q R S T U V W X Y Z