Song name
# A B C D E F G H I J K L M N O P Q R S T U V W X Y Z

Skillet - Hero tab

Guitar 01
      W                   W                   W                 
D#||-------------------|-------------------|-------------------|
A#||-------------------|-------------------|-------------------|
F#||-------------------|-------------------|-------------------|
C#||-------------------|-------------------|-------------------|
G#||-------------------|-------------------|-------------------|
C#||-------------------|-------------------|-------------------|


  PM PM PM PM                          PM  PM  PM                             
  E  E  E  E  H           H        E   E   E   E     E  E  E  E  E  E  E  E   
-----------------------|--------------------------|--------------------------|
-----------------------|--------------------------|--------------------------|
-----------------------|--------------------------|--------------------------|
-----------------------|--------------------------|--------------------------|
--2--2--2--2-----------|--------------12--12--12--|--2--2--2--2-----2--2--5--|
--2--2--2--2-----------|--------------------------|--2--2--2--2-----2--2--5--|


  E  E  Q    H           E  E  E  E  E  E  E  E     E  E  Q    H         
----------------------|--------------------------|----------------------|
----------------------|--------------------------|----------------------|
----------------------|--------------------------|----------------------|
----------------------|-----------------------5--|--L--5--5----7--------|
--L--5--5----0--------|--2--2--2--2-----2--2--3--|--L--3--3----5--------|
--L--5--5----0--------|--2--2--2--2-----2--2-----|----------------------|


  E  E  E  E  E  E  E  E     E  E  Q    H           E  E  E  E  E  E  E  E   
--------------------------|----------------------|--------------------------|
--------------------------|----------------------|--------------------------|
--------------------------|----------------------|--------------------------|
--------------------------|----------------------|-----------------------5--|
--2--2--2--2-----2--2--5--|--L--5--5----0--------|--2--2--2--2-----2--2--3--|
--2--2--2--2-----2--2--5--|--L--5--5----0--------|--2--2--2--2-----2--2-----|


                                                   PM PM PM PM            
  E  E  Q    H           Q    E  Q    S S E  E     E  E  E  E  Q    Q     
----------------------|-------------------------|------------------------|
----------------------|-------------------------|------------------------|
----------------------|-------------------------|------------------------|
--L--5--5----7--------|-------------------------|------------------------|
--L--3--3----5--------|--2----x--2----x-x-2--0--|--------------3----2----|
----------------------|--2----x--2----x-x-2--0--|--2--2--2--2------------|


     PM PM PM PM    PM PM PM PM    PM PM    PM            
  E  S  S  E  E  E  S  S  E  E     E  E  E  E  Q    Q     
--------------------------------|------------------------|
--------------------------------|------------------------|
--------------------------------|------------------------|
--------------------------------|------------------------|
--------------------------------|-----2--------3----2----|
-----4--4--4--5-----7--5--4--5--|--2--------2------------|


     PM PM PM PM  PM  PM PM PM    PM PM PM PM            
  E  S  S  E  E   E   E  E  E     E  E  E  E  Q    Q     
-------------------------------|------------------------|
-------------------------------|------------------------|
-------------------------------|------------------------|
-------------------------------|------------------------|
-------------------------------|--------------3----2----|
-----4--4--4--5--(7)--7--0--0--|--2--2--2--2------------|


                  PM PM PM PM    PM PM    PM            
  E  S S E  E  E  S  S  E  E     E  E  E  E  Q    Q     
------------------------------|------------------------|
------------------------------|------------------------|
------------------------------|------------------------|
------------------------------|------------------------|
------------------------------|-----2--------3----2----|
------------------7--5--4--5--|--2--------2------------|


     PM PM PM PM PM PM PM PM                                                   
  E  S  S  E  E  E  E  E  E     E  E  Q    E  E  E  E     E  E  H        Q     
-----------------------------|-------------------------|----------------------|
-----------------------------|-------------------------|----------------------|
-----------------------------|--2--L--2-------2--2--5--|--L--L--L--------5----|
-----------------------------|--2--L--2-------2--2--5--|--L--L--L--------5----|
-----------------------------|--0--L--0-------0--0--3--|--L--L--L--------3----|
-----4--4--4--5--7--7--0--0--|-------------------------|----------------------|


  E  E  E  E  Q    Q       E  E  E  E  Q    Q       E  E  Q    E  E  E  E   
------------------------|------------------------|-------------------------|
------------------------|------------------------|-------------------------|
------------------------|------------------------|--2--L--2-------2--2--5--|
------------------------|------------------------|--2--L--2-------2--2--5--|
--2--2-----2--3----2----|-----2-----2--3----2----|--0--L--0-------0--0--3--|
--2--2-----2------------|-----2-----2------------|-------------------------|


                                                     PM PM PM PM         
  E  E  H        Q       E  E  E  E  Q    Q       E  E  E  E  Q    Q     
----------------------|------------------------|------------------------|
----------------------|------------------------|------------------------|
--L--L--L--------5----|------------------------|------------------------|
--L--L--L--------5----|------------------------|------------------------|
--L--L--L--------3----|--2--2-----2--3----2----|-----5--5--5--5---------|
----------------------|--2--2-----2------------|-----5--5--5--5---------|


  E  E  E  E  E  E  E  E     E  E  Q    H           E  E  E  E  E  E  E  E   
--------------------------|----------------------|--------------------------|
--------------------------|----------------------|--------------------------|
--------------------------|----------------------|--------------------------|
--------------------------|----------------------|-----------------------5--|
--2--2--2--2-----2--2--5--|--L--5--5----0--------|--2--2--2--2-----2--2--3--|
--2--2--2--2-----2--2--5--|--L--5--5----0--------|--2--2--2--2-----2--2-----|


  E  E  Q    H           E  E  E  E  E  E  E  E     E  E  Q    H         
----------------------|--------------------------|----------------------|
----------------------|--------------------------|----------------------|
----------------------|--------------------------|----------------------|
--L--5--5----7--------|--------------------------|----------------------|
--L--3--3----5--------|--2--2--2--2-----2--2--5--|--L--5--5----0--------|
----------------------|--2--2--2--2-----2--2--5--|--L--5--5----0--------|


                                                    PM PM PM PM            
  E  E  E  E  E  E  E  E     E  E  Q    H           E  E  E  E  Q    Q     
--------------------------|----------------------|------------------------|
--------------------------|----------------------|------------------------|
--------------------------|----------------------|------------------------|
-----------------------5--|--L--5--5----7--------|------------------------|
--2--2--2--2-----2--2--3--|--L--3--3----5--------|--------------3----2----|
--2--2--2--2-----2--2-----|----------------------|--2--2--2--2------------|


     PM PM PM PM    PM PM PM PM    PM PM    PM            
  E  S  S  E  E  E  S  S  E  E     E  E  E  E  Q    Q     
--------------------------------|------------------------|
--------------------------------|------------------------|
--------------------------------|------------------------|
--------------------------------|------------------------|
--------------------------------|-----2--------3----2----|
-----4--4--4--5-----7--5--4--5--|--2--------2------------|


     PM PM PM PM  PM  PM PM PM    PM PM PM PM            
  E  S  S  E  E   E   E  E  E     E  E  E  E  Q    Q     
-------------------------------|------------------------|
-------------------------------|------------------------|
-------------------------------|------------------------|
-------------------------------|------------------------|
-------------------------------|--------------3----2----|
-----4--4--4--5--(7)--7--0--0--|--2--2--2--2------------|


     PM PM PM PM    PM PM PM PM    PM PM    PM            
  E  S  S  E  E  E  S  S  E  E     E  E  E  E  Q    Q     
--------------------------------|------------------------|
--------------------------------|------------------------|
--------------------------------|------------------------|
--------------------------------|------------------------|
--------------------------------|-----2--------3----2----|
-----4--4--4--5-----7--5--4--5--|--2--------2------------|


     PM PM PM PM PM PM PM PM                                                   
  E  S  S  E  E  E  E  E  E     E  E  Q    E  E  E  E     E  E  H        Q     
-----------------------------|-------------------------|----------------------|
-----------------------------|-------------------------|----------------------|
-----------------------------|--2--L--2-------2--2--5--|--L--L--L--------5----|
-----------------------------|--2--L--2-------2--2--5--|--L--L--L--------5----|
-----------------------------|--0--L--0-------0--0--3--|--L--L--L--------3----|
-----4--4--4--5--7--7--0--0--|-------------------------|----------------------|


  E  E  E  E  Q    Q       E  E  E  E  Q    Q       E  E  Q    E  E  E  E   
------------------------|------------------------|-------------------------|
------------------------|------------------------|-------------------------|
------------------------|------------------------|--2--L--2-------2--2--5--|
------------------------|------------------------|--2--L--2-------2--2--5--|
--2--2-----2--3----2----|-----2-----2--3----2----|--0--L--0-------0--0--3--|
--2--2-----2------------|-----2-----2------------|-------------------------|


                                                     PM PM PM PM         
  E  E  H        Q       E  E  E  E  Q    Q       E  E  E  E  Q    Q     
----------------------|------------------------|------------------------|
----------------------|------------------------|------------------------|
--L--L--L--------5----|------------------------|------------------------|
--L--L--L--------5----|------------------------|------------------------|
--L--L--L--------3----|--2--2-----2--3----2----|-----5--5--5--5---------|
----------------------|--2--2-----2------------|-----5--5--5--5---------|


  E  E  E  E  E  E  E  E     E  E  Q    H           E  E  E  E  E  E  E  E   
--------------------------|----------------------|--------------------------|
--------------------------|----------------------|--------------------------|
--------------------------|----------------------|--------------------------|
--------------------------|----------------------|-----------------------5--|
--2--2--2--2-----2--2--5--|--L--5--5----0--------|--2--2--2--2-----2--2--3--|
--2--2--2--2-----2--2--5--|--L--5--5----0--------|--2--2--2--2-----2--2-----|


  E  E  Q    H           E  E  E  E  E  E  E  E     E  E  Q    H         
----------------------|--------------------------|----------------------|
----------------------|--------------------------|----------------------|
----------------------|--------------------------|----------------------|
--L--5--5----7--------|--------------------------|----------------------|
--L--3--3----5--------|--2--2--2--2-----2--2--5--|--L--5--5----0--------|
----------------------|--2--2--2--2-----2--2--5--|--L--5--5----0--------|


  E  E  E  E  E  E  E  E     E  E  Q    H           E  E  E  E  E  E  E  E   
--------------------------|----------------------|--------------------------|
--------------------------|----------------------|--------------------------|
--------------------------|----------------------|--------------------------|
-----------------------5--|--L--5--5----7--------|--------------------------|
--2--2--2--2-----2--2--3--|--L--3--3----5--------|--2--2--2--2-----2--2--5--|
--2--2--2--2-----2--2-----|----------------------|--2--2--2--2-----2--2--5--|


  E  E  Q    H           E  E  E  E  E  E  E  E     E  E  Q    H         
----------------------|--------------------------|----------------------|
----------------------|--------------------------|----------------------|
----------------------|--------------------------|----------------------|
----------------------|-----------------------5--|--L--5--5----7--------|
--L--5--5----0--------|--2--2--2--2-----2--2--3--|--L--3--3----5--------|
--L--5--5----0--------|--2--2--2--2-----2--2-----|----------------------|


  PM PM PM PM                                                      
                                 |-3-| |-3-|                       
  E  E  E  E  H           Q.     T T T T T T E   S   S   E    E    
-----------------------|------------------------------------------|
-----------------------|------------------------------------------|
-----------------------|------------------------------------------|
-----------------------|-------------------------x---x---x----x---|
--2--2--2--2-----------|---------x-x-x-x-x-x-x--(2)-(2)-(2)--(0)--|
--2--2--2--2-----------|---------x-x-x-x-x-x-x--(2)-(2)-(2)--(0)--|


  PM PM PM PM             PM PM PM PM                                          
  E  E  E  E  H           E  E  E  E  E  E  E  E       E  E  Q    E  E  E  E   
-----------------------|--------------------------||--------------------------|
-----------------------|--------------------------||--------------------------|
-----------------------|--------------------------||*--2--L--2-------2--2--5--|
-----------------------|--------------------------||*--2--L--2-------2--2--5--|
--2--2--2--2-----------|--2--2--2--2--2--2--2--2--||---0--L--0-------0--0--3--|
--2--2--2--2-----------|--2--2--2--2--2--2--2--2--||--------------------------|


  E  E  H        Q       E  E  Q    E  E  E  E     E  E  Q    H         3x
----------------------|-------------------------|-----------------------||
----------------------|-------------------------|-----------------------||
--L--L--L--------5----|-------------------------|----------------------*||
--L--L--L--------5----|--2--L--2-------2--2--0--|--L--L--L----L--------*||
--L--L--L--------3----|--2--L--2-------2--2--0--|--L--L--L----L---------||
----------------------|--2--L--2-------2--2--0--|--L--L--L----L---------||


  Q    Q    Q    Q       Q    Q    Q    Q       Q    Q    Q    Q     
----------------------|----------------------|----------------------|
----------------------|----------------------|----------------------|
--5----5----5----5----|--5----5----5----5----|--7----7----7----7----|
--5----5----5----5----|--5----5----5----5----|--7----7----7----7----|
--3----3----3----3----|--3----3----3----3----|--5----5----5----5----|
----------------------|----------------------|----------------------|


                         PM PM PM PM             PM PM PM PM              
  Q    Q    Q    Q       E  E  E  E  H           E  E  E  E  E  E  E  E   
----------------------|-----------------------|--------------------------|
----------------------|-----------------------|--------------------------|
----------------------|-----------------------|--------------------------|
--9----9----9---------|-----------------------|--------------------------|
--6----6----6----6----|--2--2--2--2-----------|--2--2--2--2--2--2--2--2--|
----------------------|--2--2--2--2-----------|--2--2--2--2--2--2--2--2--|


  E  E  E  E  E  E  E  E     Q    H.              E  E  E  E  E  E  E  E   
--------------------------|--------------------|--------------------------|
--------------------------|--------------------|--------------------------|
--------------------------|--------------------|--------------------------|
--------------------------|--------------------|-----------------------5--|
--2--2--2--2-----2--2--2--|--5-----------------|--2--2--2--2-----2--2--3--|
--2--2--2--2-----2--2--2--|--5-----------------|--2--2--2--2-----2--2-----|


  E  E  Q    H           E  E  E  E  E  E  E  E     E  E  Q    H         
----------------------|--------------------------|----------------------|
----------------------|--------------------------|----------------------|
----------------------|--------------------------|----------------------|
--L--5--5----7--------|--------------------------|----------------------|
--L--3--3----5--------|--2--2--2--2-----2--2--5--|--L--5--5----0--------|
----------------------|--2--2--2--2-----2--2--5--|--L--5--5----0--------|


  E  E  E  E  E  E  E  E     E  E  Q    H           E  E  E  E  E  E  E  E   
--------------------------|----------------------|--------------------------|
--------------------------|----------------------|--------------------------|
--------------------------|----------------------|--------------------------|
-----------------------5--|--L--5--5----7--------|--------------------------|
--2--2--2--2-----2--2--3--|--L--3--3----5--------|--2--2--2--2--2--2--2--5--|
--2--2--2--2-----2--2-----|----------------------|--2--2--2--2--2--2--2--5--|


  E  E  Q    H           E  E  E  E  E  E  E  E     E  E  Q    H         
----------------------|--------------------------|----------------------|
----------------------|--------------------------|----------------------|
----------------------|--------------------------|----------------------|
----------------------|-----------------------5--|--L--5--5----7--------|
--L--5--5----0--------|--2--2--2--2--2--2--2--3--|--L--3--3----5--------|
--L--5--5----0--------|--2--2--2--2--2--2--2-----|----------------------|


  E  E  E  E  E  E  E  E     E  E  Q    H           Q    Q    Q    Q     
--------------------------|----------------------|----------------------|
--------------------------|----------------------|----------------------|
--------------------------|----------------------|----------------------|
--------------------------|----------------------|----------------------|
--2--2--2--2--2--2--2--5--|--L--5--5----0--------|--2----2----2----2----|
--2--2--2--2--2--2--2--5--|--L--5--5----0--------|--2----2----2----2----|


  Q    Q    Q    Q       Q    H.              E  E  E  E  E  E  E  E   
----------------------|--------------------|--------------------------|
----------------------|--------------------|--------------------------|
--5----5----5----5----|--7-----------------|--------------------------|
--5----5----5----5----|--7-----------------|--------------------------|
--3----3----3----3----|--5-----------------|--2--2-----2--2-----2--2--|
----------------------|--------------------|--2--2-----2--2-----2--2--|


  E  E  E  E  E  E  E  E     Q    E  E  E  E  E  E     E  E  E  E  E  E  E  E   
--------------------------|-------------------------|--------------------------|
--------------------------|-------------------------|--------------------------|
--------------------------|-------------------------|--------------------------|
--------------------------|-------------------------|--------------------------|
-----5--5-----0--0-----0--|--2----5--2--5--2--5--2--|--2--2-----2-----2--2-----|
-----5--5-----0--0-----0--|--2----5--2--5--2--5--2--|--2--2-----2-----2--2-----|


  W                  
-------------------||
-------------------||
-------------------||
-------------------||
-------------------||
-------------------||

Guitar 02
      W                   E  E   E   E   E   E   E   E   
D#||-------------------|--------------------------------|
A#||-------------------|--------------------------------|
F#||-------------------|--9--9--11--11--12--12--11--11--|
C#||-------------------|--------------------------------|
G#||-------------------|--------------------------------|
C#||-------------------|--------------------------------|


   E   E   E   E   E   E   E   E     E  E   E   E   E   E   E   E   
----------------------------------|--------------------------------|
----------10--10------------------|--------------------------------|
------------------12--12--11--11--|--9--9--11--11--12--12--11--11--|
--12--12--------------------------|--------------------------------|
----------------------------------|--------------------------------|
----------------------------------|--------------------------------|


                      PM  PM  PM                                   
   E   E   E   E  E   E   E   E     E  E   E   E   E   E   E   E   
---------------------------------|--------------------------------|
----------10--10-----------------|--------------------------------|
---------------------------------|--9--9--11--11--12--12--11--11--|
--12--12-------------12--12--12--|--------------------------------|
---------------------------------|--------------------------------|
---------------------------------|--------------------------------|


   E   E   E   E   E   E   E   E     E  E   E   E   E   E   E   E   
----------------------------------|--------------------------------|
----------10--10------------------|--------------------------------|
------------------12--12--11--11--|--9--9--11--11--12--12--11--11--|
--12--12--------------------------|--------------------------------|
----------------------------------|--------------------------------|
----------------------------------|--------------------------------|


   E   E   E   E   E   E   E   E     E  E   E   E   E   E   E   E   
----------------------------------|--------------------------------|
----------10--10------------------|--------------------------------|
------------------12--12--11--11--|--9--9--11--11--12--12--11--11--|
--12--12--------------------------|--------------------------------|
----------------------------------|--------------------------------|
----------------------------------|--------------------------------|


   E   E   E   E   E   E   E   E     E  E   E   E   E   E   E   E   
----------------------------------|--------------------------------|
----------10--10------------------|--------------------------------|
------------------12--12--11--11--|--9--9--11--11--12--12--11--11--|
--12--12--------------------------|--------------------------------|
----------------------------------|--------------------------------|
----------------------------------|--------------------------------|


   E   E   E   E   E   E   E   E     E   E  E   E  E   E  E   E   
----------------------------------|--8---L--8---L--8---L--8---L--|
----------10--10------------------|-----12--L--12--L--12--L--12--|
------------------12--12--11--11--|------------------------------|
--12--12--------------------------|------------------------------|
----------------------------------|------------------------------|
----------------------------------|------------------------------|


  PM PM PM PM                 PM PM PM PM    PM PM PM PM  
  E  E  E  E  Q    Q       E  S  S  E  E  E  S  S  E  E   
------------------------|--------------------------------|
------------------------|--------------------------------|
------------------------|--------------------------------|
------------------------|--------------------------------|
--------------3----2----|--------------------------------|
--2--2--2--2------------|-----4--4--4--5-----7--5--4--5--|


  PM PM    PM                 PM PM PM PM  PM  PM PM PM  
  E  E  E  E  Q    Q       E  S  S  E  E   E   E  E  E   
------------------------|-------------------------------|
------------------------|-------------------------------|
------------------------|-------------------------------|
------------------------|-------------------------------|
-----2--------3----2----|-------------------------------|
--2--------2------------|-----4--4--4--5--(7)--7--0--0--|


  PM PM PM PM                              PM PM PM PM  
  E  E  E  E  Q    Q       E  S S E  E  E  S  S  E  E   
------------------------|------------------------------|
------------------------|------------------------------|
------------------------|------------------------------|
------------------------|------------------------------|
--------------3----2----|------------------------------|
--2--2--2--2------------|------------------7--5--4--5--|


  PM PM    PM                 PM PM PM PM PM PM PM PM  
  E  E  E  E  Q    Q       E  S  S  E  E  E  E  E  E   
------------------------|-----------------------------|
------------------------|-----------------------------|
------------------------|-----------------------------|
------------------------|-----------------------------|
-----2--------3----2----|-----------------------------|
--2--------2------------|-----4--4--4--5--7--7--0--0--|


  E  E  Q    E  E  E  E     E  E  H        Q       E  E  E  E  Q    Q     
-------------------------|----------------------|------------------------|
-------------------------|----------------------|------------------------|
--2--L--2-------2--2--5--|--L--L--L--------5----|------------------------|
--2--L--2-------2--2--5--|--L--L--L--------5----|------------------------|
--0--L--0-------0--0--3--|--L--L--L--------3----|--2--2-----2--3----2----|
-------------------------|----------------------|--2--2-----2------------|


  E  E  E  E  Q    Q       E  E  Q    E  E  E  E     E  E  H        Q     
------------------------|-------------------------|----------------------|
------------------------|-------------------------|----------------------|
------------------------|--2--L--2-------2--2--5--|--L--L--L--------5----|
------------------------|--2--L--2-------2--2--5--|--L--L--L--------5----|
-----2-----2--3----2----|--0--L--0-------0--0--3--|--L--L--L--------3----|
-----2-----2------------|-------------------------|----------------------|


                              PM PM PM PM         
  E  E  E  E  Q    Q       E  E  E  E  Q    Q     
------------------------|------------------------|
------------------------|------------------------|
------------------------|------------------------|
------------------------|------------------------|
--2--2-----2--3----2----|-----5--5--5--5---------|
--2--2-----2------------|-----5--5--5--5---------|


  E  E   E   E   E   E   E   E      E   E   E   E   E   E   E   E   
--------------------------------|----------------------------------|
--------------------------------|----------10--10------------------|
--9--9--11--11--12--12--11--11--|------------------12--12--11--11--|
--------------------------------|--12--12--------------------------|
--------------------------------|----------------------------------|
--------------------------------|----------------------------------|


  E  E   E   E   E   E   E   E      E   E   E   E   E   E   E   E   
--------------------------------|----------------------------------|
--------------------------------|----------10--10------------------|
--9--9--11--11--12--12--11--11--|------------------12--12--11--11--|
--------------------------------|--12--12--------------------------|
--------------------------------|----------------------------------|
--------------------------------|----------------------------------|


  E  E   E   E   E   E   E   E      E   E   E   E   E   E   E   E   
--------------------------------|----------------------------------|
--------------------------------|----------10--10------------------|
--9--9--11--11--12--12--11--11--|------------------12--12--11--11--|
--------------------------------|--12--12--------------------------|
--------------------------------|----------------------------------|
--------------------------------|----------------------------------|


  E  E   E   E   E   E   E   E      E   E   E   E   E   E   E   E   
--------------------------------|----------------------------------|
--------------------------------|----------10--10------------------|
--9--9--11--11--12--12--11--11--|------------------12--12--11--11--|
--------------------------------|--12--12--------------------------|
--------------------------------|----------------------------------|
--------------------------------|----------------------------------|


  PM PM PM PM                 PM PM PM PM    PM PM PM PM  
  E  E  E  E  Q    Q       E  S  S  E  E  E  S  S  E  E   
------------------------|--------------------------------|
------------------------|--------------------------------|
------------------------|--------------------------------|
------------------------|--------------------------------|
--------------3----2----|--------------------------------|
--2--2--2--2------------|-----4--4--4--5-----7--5--4--5--|


  PM PM    PM                 PM PM PM PM  PM  PM PM PM  
  E  E  E  E  Q    Q       E  S  S  E  E   E   E  E  E   
------------------------|-------------------------------|
------------------------|-------------------------------|
------------------------|-------------------------------|
------------------------|-------------------------------|
-----2--------3----2----|-------------------------------|
--2--------2------------|-----4--4--4--5--(7)--7--0--0--|


  PM PM PM PM                 PM PM PM PM    PM PM PM PM  
  E  E  E  E  Q    Q       E  S  S  E  E  E  S  S  E  E   
------------------------|--------------------------------|
------------------------|--------------------------------|
------------------------|--------------------------------|
------------------------|--------------------------------|
--------------3----2----|--------------------------------|
--2--2--2--2------------|-----4--4--4--5-----7--5--4--5--|


  PM PM    PM                 PM PM PM PM PM PM PM PM  
  E  E  E  E  Q    Q       E  S  S  E  E  E  E  E  E   
------------------------|-----------------------------|
------------------------|-----------------------------|
------------------------|-----------------------------|
------------------------|-----------------------------|
-----2--------3----2----|-----------------------------|
--2--------2------------|-----4--4--4--5--7--7--0--0--|


  E  E  Q    E  E  E  E     E  E  H        Q       E  E  E  E  Q    Q     
-------------------------|----------------------|------------------------|
-------------------------|----------------------|------------------------|
--2--L--2-------2--2--5--|--L--L--L--------5----|------------------------|
--2--L--2-------2--2--5--|--L--L--L--------5----|------------------------|
--0--L--0-------0--0--3--|--L--L--L--------3----|--2--2-----2--3----2----|
-------------------------|----------------------|--2--2-----2------------|


  E  E  E  E  Q    Q       E  E  Q    E  E  E  E     E  E  H        Q     
------------------------|-------------------------|----------------------|
------------------------|-------------------------|----------------------|
------------------------|--2--L--2-------2--2--5--|--L--L--L--------5----|
------------------------|--2--L--2-------2--2--5--|--L--L--L--------5----|
-----2-----2--3----2----|--0--L--0-------0--0--3--|--L--L--L--------3----|
-----2-----2------------|-------------------------|----------------------|


                              PM PM PM PM         
  E  E  E  E  Q    Q       E  E  E  E  Q    Q     
------------------------|------------------------|
------------------------|------------------------|
------------------------|------------------------|
------------------------|------------------------|
--2--2-----2--3----2----|-----5--5--5--5---------|
--2--2-----2------------|-----5--5--5--5---------|


  E  E   E   E   E   E   E   E      E   E   E   E   E   E   E   E   
--------------------------------|----------------------------------|
--------------------------------|----------10--10------------------|
--9--9--11--11--12--12--11--11--|------------------12--12--11--11--|
--------------------------------|--12--12--------------------------|
--------------------------------|----------------------------------|
--------------------------------|----------------------------------|


  E  E   E   E   E   E   E   E      E   E   E   E   E   E   E   E   
--------------------------------|----------------------------------|
--------------------------------|----------10--10------------------|
--9--9--11--11--12--12--11--11--|------------------12--12--11--11--|
--------------------------------|--12--12--------------------------|
--------------------------------|----------------------------------|
--------------------------------|----------------------------------|


  E  E   E   E   E   E   E   E      E   E   E   E   E   E   E   E   
--------------------------------|----------------------------------|
--------------------------------|----------10--10------------------|
--9--9--11--11--12--12--11--11--|------------------12--12--11--11--|
--------------------------------|--12--12--------------------------|
--------------------------------|----------------------------------|
--------------------------------|----------------------------------|


  E  E   E   E   E   E   E   E      E   E   E   E   E   E   E   E   
--------------------------------|----------------------------------|
--------------------------------|----------10--10------------------|
--9--9--11--11--12--12--11--11--|------------------12--12--11--11--|
--------------------------------|--12--12--------------------------|
--------------------------------|----------------------------------|
--------------------------------|----------------------------------|


  E  E   E   E   E   E   E   E      E   E   E   E   E   E   E   E   
--------------------------------|----------------------------------|
--------------------------------|----------10--10------------------|
--9--9--11--11--12--12--11--11--|------------------12--12--11--11--|
--------------------------------|--12--12--------------------------|
--------------------------------|----------------------------------|
--------------------------------|----------------------------------|


  E  E   E   E   E   E   E   E      E   E   E   E   E   E   E   E   
--------------------------------|----------------------------------|
--------------------------------|----------10--10------------------|
--9--9--11--11--12--12--11--11--|------------------12--12--11--11--|
--------------------------------|--12--12--------------------------|
--------------------------------|----------------------------------|
--------------------------------|----------------------------------|


  E  E   E   E   E   E   E   E      E   E   E   E   E   E   E   E   
--------------------------------|----------------------------------|
--------------------------------|----------10--10------------------|
--9--9--11--11--12--12--11--11--|------------------12--12--11--11--|
--------------------------------|--12--12--------------------------|
--------------------------------|----------------------------------|
--------------------------------|----------------------------------|


  E  E   E   E   E   E   E   E      E   E   E   E   E   E   E   E   
--------------------------------|----------------------------------|
--------------------------------|----------10--10------------------|
--9--9--11--11--12--12--11--11--|------------------12--12--11--11--|
--------------------------------|--12--12--------------------------|
--------------------------------|----------------------------------|
--------------------------------|----------------------------------|


    E  E  Q    E  E  E  E     E  E  H        Q       E  E  Q    E  E  E  E   
|--------------------------|----------------------|-------------------------|
|--------------------------|----------------------|-------------------------|
|*--2--L--2-------2--2--5--|--L--L--L--------5----|-------------------------|
|*--2--L--2-------2--2--5--|--L--L--L--------5----|--2--L--2-------2--2--0--|
|---0--L--0-------0--0--3--|--L--L--L--------3----|--2--L--2-------2--2--0--|
|--------------------------|----------------------|--2--L--2-------2--2--0--|


  E  E  Q    H         3x  Q    Q    Q    Q       Q    Q    Q    Q     
-----------------------||----------------------|----------------------|
-----------------------||----------------------|----------------------|
----------------------*||--5----5----5----5----|--5----5----5----5----|
--L--L--L----L--------*||--5----5----5----5----|--5----5----5----5----|
--L--L--L----L---------||--3----3----3----3----|--3----3----3----3----|
--L--L--L----L---------||----------------------|----------------------|


  Q    Q    Q    Q       Q    Q    Q    Q       E  E   E   E   E   E   E   E   
----------------------|----------------------|--------------------------------|
----------------------|----------------------|--------------------------------|
--7----7----7----7----|----------------------|--9--9--11--11--12--12--11--11--|
--7----7----7----7----|--9----9----9----9----|--------------------------------|
--5----5----5----5----|--6----6----6----6----|--------------------------------|
----------------------|----------------------|--------------------------------|


   E   E   E   E   E   E   E   E     E  E   E   E   E   E   E   E   
----------------------------------|--------------------------------|
----------10--10------------------|--------------------------------|
------------------12--12--11--11--|--9--9--11--11--12--12--11--11--|
--12--12--------------------------|--------------------------------|
----------------------------------|--------------------------------|
----------------------------------|--------------------------------|


                <                                        
   Q    Q.      Q.        E  E   E   E   E   E   E   E   
-----------------------|--------------------------------|
-----------------------|--------------------------------|
-----------------------|--9--9--11--11--12--12--11--11--|
--12-----------12------|--------------------------------|
-----------------------|--------------------------------|
-----------------------|--------------------------------|


   E   E   E   E   E   E   E   E     E  E   E   E   E   E   E   E   
----------------------------------|--------------------------------|
----------10--10------------------|--------------------------------|
------------------12--12--11--11--|--9--9--11--11--12--12--11--11--|
--12--12--------------------------|--------------------------------|
----------------------------------|--------------------------------|
----------------------------------|--------------------------------|


   E   E   E   E   E   E   E   E     E  E   E   E   E   E   E   E   
----------------------------------|--------------------------------|
----------10--10------------------|--------------------------------|
------------------12--12--11--11--|--9--9--11--11--12--12--11--11--|
--12--12--------------------------|--------------------------------|
----------------------------------|--------------------------------|
----------------------------------|--------------------------------|


   E   E   E   E   E   E   E   E     E  E   E   E   E   E   E   E   
----------------------------------|--------------------------------|
----------10--10------------------|--------------------------------|
------------------12--12--11--11--|--9--9--11--11--12--12--11--11--|
--12--12--------------------------|--------------------------------|
----------------------------------|--------------------------------|
----------------------------------|--------------------------------|


   E   E   E   E   E   E   E   E     E  E   E   E   E   E   E   E   
----------------------------------|--------------------------------|
----------10--10------------------|--------------------------------|
------------------12--12--11--11--|--9--9--11--11--12--12--11--11--|
--12--12--------------------------|--------------------------------|
----------------------------------|--------------------------------|
----------------------------------|--------------------------------|


   E   E   E   E   E   E   E   E     E  E   E   E   E   E   E   E   
----------------------------------|--------------------------------|
----------10--10------------------|--------------------------------|
------------------12--12--11--11--|--9--9--11--11--12--12--11--11--|
--12--12--------------------------|--------------------------------|
----------------------------------|--------------------------------|
----------------------------------|--------------------------------|


   E   E   E   E   E   E   E   E     E  E   E   E   E   E   E   E   
----------------------------------|--------------------------------|
----------10--10------------------|--------------------------------|
------------------12--12--11--11--|--9--9--11--11--12--12--11--11--|
--12--12--------------------------|--------------------------------|
----------------------------------|--------------------------------|
----------------------------------|--------------------------------|


   E   E   E   E   E   E   E   E      Q    H.            
----------------------------------|---------------------|
----------10--10------------------|---------------------|
------------------12--12--11--11--|---------------------|
--12--12--------------------------|--12-----------------|
----------------------------------|---------------------|
----------------------------------|---------------------|


  E  E  E  E  E  E  E  E     E  E  E  E  E  E  E  E     Q    E  E  E  E  E  E   
--------------------------|--------------------------|-------------------------|
--------------------------|--------------------------|-------------------------|
--------------------------|--------------------------|-------------------------|
--------------------------|--------------------------|-------------------------|
--2--2-----2--2-----2--2--|-----5--5-----0--0-----0--|--2----5--2--5--2--5--2--|
--2--2-----2--2-----2--2--|-----5--5-----0--0-----0--|--2----5--2--5--2--5--2--|


  E  E  E  E  E  E  E  E     W                  
--------------------------|-------------------||
--------------------------|-------------------||
--------------------------|-------------------||
--------------------------|-------------------||
--2--2-----2-----2--2-----|-------------------||
--2--2-----2-----2--2-----|-------------------||




Duration Legend
---------------
W - whole
H - half
Q - quarter
E - 8th
S - 16th
T - 32nd
X - 64th
. - note dotted
|-n-|  - n-tuplets


Tablature Legend
----------------
L - tied note
x - dead note
g - grace note
(n) - ghost note
> - accentuded note
NH - natural harmonic
AH - artificial harmonic
TH - tapped harmonic
SH - semi harmonic
PH - pitch harmonic
h - hammer on
p - pull off
b - bend
br - bendRelease
pb - preBend
pbr - preBendRelease
brb - bendReleaseBend
\n/ - tremolo bar dip
\n - tremolo bar dive
-/n - tremolo bar Release up
/n\ - tremolo bar inverted dip
/n - tremolo bar return
-\n - tremolo bar Release down
S - shift slide
s - legato slide
/ -  slide into from below or out of upwards
\ -  slide into from above or out of downwards
~ - vibrato
W - wide vibrato
tr - trill
TP - tremolo picking
T - tapping
S - slap
P - pop
< - fade in
^ - brush up
v - brush down
Tap to rate this tab
 
# A B C D E F G H I J K L M N O P Q R S T U V W X Y Z