Song name
# A B C D E F G H I J K L M N O P Q R S T U V W X Y Z

Skillet - Sometimes tab

This is the song "sometimes" by Skillet. i figured this tab out completely by ear 
and im 100% sure this is how its played

Tuning in Drop B. B F# B E G# C#


Intro x1
|---------------------|
|---------------------|
|---------------------|
|7-5-0-0-0-0-0-0-0-0-0|
|7-5-0-0-0-0-0-0-0-0-0|
|7-5-0-0-0-0-0-0-0-0-0|
     . . . . . . . . .

sometimes when i lie....
|----------------------------|
|----------------------------|
|----------------------------| Guitar 1
|0000-0-00-10-0000-0-12-7-10-|  x5
|0000-0-00-10-0000-0-12-7-10-|
|0000-0-00-10-0000-0-12-7-10-|

|-----------------------------------|
|-----------------------------------|
|-----------------------------------| Guitar 2
|12-12-----10-10-----12-12-----12-14|  x2
|-----12-12-----10-10-----12-12-----|
|-----------------------------------|

Pre Chorus
i dont know why i do the things i do to you......
|---------------------------------------|
|---------------------------------------|
|---------------------------------------|
|8-8-8-8-10-10-10-10-8-8-8-8-10-10-10-10|
|8-8-8-8-10-10-10-10-8-8-8-8-10-10-10-10|
|8-8-8-8-10-10-10-10-8-8-8-8-10-10-10-10|

Chorus
|----------------------------|
|----------------------------|
|----------------------------| Guitar 1
|8-8-8-8-5-5-5-5-0000-0-00-10|  x2
|8-8-8-8-5-5-5-5-0000-0-00-10|
|8-8-8-8-5-5-5-5-0000-0-00-10|

Chorus Contnued
|----------------------------------------------------------------|
|----------------------------------------------------------------|
|----------------------------------------------------------------|
|8-8-8-8-5-5-5-5-0-0-0-0-10-10-10-10-8-8-8-8-5-5-5-5-0000-0-00-10|
|8-8-8-8-5-5-5-5-0-0-0-0-10-10-10-10-8-8-8-8-5-5-5-5-0000-0-00-10|
|8-8-8-8-5-5-5-5-0-0-0-0-10-10-10-10-8-8-8-8-5-5-5-5-0000-0-00-10|

Sometimes Dont deny....
|----------------------------|
|----------------------------|
|----------------------------| Guitar 1
|0000-0-00-10-0000-0-12-7-10-|  x5
|0000-0-00-10-0000-0-12-7-10-|
|0000-0-00-10-0000-0-12-7-10-|

Pre Chorus
i dont know why i do......
|---------------------------------------|
|---------------------------------------|
|---------------------------------------|
|8-8-8-8-10-10-10-10-8-8-8-8-10-10-10-10|
|8-8-8-8-10-10-10-10-8-8-8-8-10-10-10-10|
|8-8-8-8-10-10-10-10-8-8-8-8-10-10-10-10|

Chorus
|----------------------------|
|----------------------------|
|----------------------------| Guitar 1
|8-8-8-8-5-5-5-5-0000-0-00-10|  x2
|8-8-8-8-5-5-5-5-0000-0-00-10|
|8-8-8-8-5-5-5-5-0000-0-00-10|

Chorus Contnued
|----------------------------------------------------------------|
|----------------------------------------------------------------|
|----------------------------------------------------------------|
|8-8-8-8-5-5-5-5-0-0-0-0-10-10-10-10-8-8-8-8-5-5-5-5-0000-0-00-10|
|8-8-8-8-5-5-5-5-0-0-0-0-10-10-10-10-8-8-8-8-5-5-5-5-0000-0-00-10|
|8-8-8-8-5-5-5-5-0-0-0-0-10-10-10-10-8-8-8-8-5-5-5-5-0000-0-00-10|

|-----------|
|-----------|
|-----------| Bridge 1
|0-2-3-5-5/7|  x4
|-----------|
|-----------|
                   i want someone to hurt.....
|-----------------------------------------|
|-----------------------------------------|
|-----------------------------------------|   Bridge 2
|8--5--0--3--8--5--10-8-5-0-10-8-5-0-0-0-0|throughtout solo
|8--5--0--3--8--5--10-8-5-0-10-8-5-0-0-0-0|
|8--5--0--3--8--5--10-8-5-0-10-8-5-0-0-0-0|
                                   . . . .
Chorus
|----------------------------|
|----------------------------|
|----------------------------| Guitar 1
|8-8-8-8-5-5-5-5-0000-0-00-10|  x2
|8-8-8-8-5-5-5-5-0000-0-00-10|
|8-8-8-8-5-5-5-5-0000-0-00-10|

Chorus Contnued
|----------------------------------------------------------------|
|----------------------------------------------------------------|
|----------------------------------------------------------------|
|8-8-8-8-5-5-5-5-0-0-0-0-10-10-10-10-8-8-8-8-5-5-5-5-0000-0-00-10|
|8-8-8-8-5-5-5-5-0-0-0-0-10-10-10-10-8-8-8-8-5-5-5-5-0000-0-00-10|
|8-8-8-8-5-5-5-5-0-0-0-0-10-10-10-10-8-8-8-8-5-5-5-5-0000-0-00-10|

Sorry the solo wasnt included. didnt have the patience to figure it out lol
Tap to rate this tab
 
# A B C D E F G H I J K L M N O P Q R S T U V W X Y Z