Skillet - Sometimes tab

-------------------------------------------------------------------------------
			     Sometimes solo - Skillet
-------------------------------------------------------------------------------
Tabbed by: Ozzyslash
Email: Yankees26@comast.net

Tuning: Drop D

e|--------------|
B|--------------|
G|---------9-11-|    x2
D|-9-11-12------|
A|--------------|
D|--------------|

e|------------------14b-14b-12--------------------------------------|
B|------------------------------------------------------17----------|
G|----------9h10h11-----------------------------16h18h19--19-18-19~-|
D|-9-9h10h11----------------------------14h16h17--------------------|
A|------------------------------14h16h17----------------------------|
D|------------------------------------------------------------------|



************************************

| /   slide up
| \   slide down
| h   hammer-on
| p   pull-off
| ~   vibrato
| +   harmonic
| x   Mute note
| b   Bend
| pb  Pre-bend
| br  Bend release
| pbr Pre-bend release
| brb Bend release bend

************************************
Tap to rate this tab
 
# A B C D E F G H I J K L M N O P Q R S T U V W X Y Z