Song name
# A B C D E F G H I J K L M N O P Q R S T U V W X Y Z

Skillet - Open Wounds tab

Guitar 1- Lead
Guitar 2-Lead (Fill)
Guitar 3- Rythym

INTRO 
Guitar 1 (Clean)                       
D|----7/14------|---12---10----|
A|--------------|--------------|
F|--------------|--------------|
C|--------------|--------------| 
G|--------------|--------------|
C|--------------|--------------|

Guitar 2 Responds to Guitar 1 (Clean with delay effect)
D|--------------|--21h22/------|
A|--------------|--------------|
F|--------------|--------------|
C|--------------|--------------| 
G|--------------|--------------|
C|--------------|--------------|

Guitar 3 (Clean)
D|-------------------|
A|---3---3---3---3---|
F|-------------------|
C|--4---4---4---4----| 
G|-2-------0---------|
C|-----5-------0-----|

VERSE 
Guitar 1 (Clean with tremolo effect)
D|--14----12----|
A|-----14----15-|
F|--------------|
C|--------------| 
G|--------------|
C|--------------|

Guitar 3 (Acoustic)
D|-------------------|
A|---3---3---3---3---|
F|-------------------|
C|--4---4---4---4----| 
G|-2-------0---------|
C|-----5-------0-----|

PRE-CHORUS
Guitar 1 (Clean, no tremolo)
D|-14---------12-----|-14----12-|
A|----15-12------15--|----------|
F|----------12-------|----12----|
C|-------------------|----------|
G|-------------------|----------|
C|-------------------|----------|

Guitar 2 (Clean with delay, same as intro)
D|--------------|--21h22/------|
A|--------------|--------------|
F|--------------|--------------|
C|--------------|--------------| 
G|--------------|--------------|
C|--------------|--------------|

Guitar 3 (Clean)
D|-------------------|
A|---3---3---3---3---|
F|-------------------|
C|--4---4---4---4----| 
G|-2-------0---------|
C|-----5-------0-----|

CHORUS
All Guitars, Heavy Distortion
D|-----------------------------|
A|-----------------------------|
F|-4-4-XX----------------------|
C|-4-4-XX--5-5-XX--2-2-0-2-0---| 
G|-2-2-XX--5-5-XX--2-2-0-2-0---|
C|-----XX--5-5-XX--2-2-0-2-0---|

BRIDGE

D|----------------------------|
A|----------------------------|
F|-----4-----4-------4-2------|
C|-5-2-4--5-2-4--5-2-4-2-2-5--| 
G|-5-2-2--5-2-2--5-2-2-0-2-5--|
C|-5-2----5-2----5-2-----2-5--|

FINAL CHORUS

Guitar 1 (Clean)                       
D|----7/14------|---12---10----|
A|--------------|--------------|
F|--------------|--------------|
C|--------------|--------------| 
G|--------------|--------------|
C|--------------|--------------|

Guitar 2 Responds to Guitar 1 (Clean with delay effect)
D|--------------|--21h22/------|
A|--------------|--------------|
F|--------------|--------------|
C|--------------|--------------| 
G|--------------|--------------|
C|--------------|--------------|

Guitar 3 (Clean)      (Then Distorted, Palm Mute)
D|-------------------|------------|
A|---3---3---3---3---|------------|
F|-------------------|-4---2------|
C|--4---4---4---4----|-4-5-2-2----|
G|-2-------0---------|-2-5-0-2----|
C|-----5-------0-----|---5---2----|

All Guitars, Heavy Distortion
D|-----------------------------|--------------------|
A|-----------------------------|--------------------|
F|-4-4-XX----------------------|-4-4----------------|
C|-4-4-XX--5-5-XX--2-2-0-2-0---|-4-4-5-5-2-2-0-2-0--|
G|-2-2-XX--5-5-XX--2-2-0-2-0---|-2-2-5-5-2-2-0-2-0--|
C|-----XX--5-5-XX--2-2-0-2-0---|-----5-5-2-2-0-2-0--|

OUTRO
D|-----------------|
A|-----------------|
F|-4-4-*-4-4-4-*---|
C|-4-4-*-4-4-4-*---| 
G|-2-2-*-2-2-2-*---|
C|-----------------|

Enjoy. First tab, please rate. Send me an email with any corrections to mistakes you see. 
vincesosmart@yahoo.com
Tap to rate this tab
 
# A B C D E F G H I J K L M N O P Q R S T U V W X Y Z