Song name
# A B C D E F G H I J K L M N O P Q R S T U V W X Y Z

Skillet - Falling Inside The Black tab

-------------------------------------------------------------------------------
	              Falling Inside The Black  - Skillet
-------------------------------------------------------------------------------
Tabbed by: Brock30
Tuning: Drop D

	INTRO
e|-0-8-7-0-2-3-0-8-7-0-10-8-0-8-7-0-2-3-0-8-7-0-10-8-------------------------|
B|---------------------------------------------------------------------------|
G|---------------------------------------------------------------------------|
D|---------------------------------------------------------------------------|
A|---------------------------------------------------------------------------|
D|---------------------------------------------------------------------------|
						(continues in background)
	INTRO(cont.)
e|---------------------------------------------------------------------------|
B|---------------------------------------------------------------------------|
G|---------------------------------------------------------------------------|
D|-2-33--2-33--2-33-055-0---2-33--2-33--2-33-055-0---------------------------|
A|-2-33--2-33--2-33-055-0---2-33--2-33--2-33-055-0---------------------------|
D|-2-33--2-33--2-33-055-0---2-33--2-33--2-33-055-0---------------------------|
	
	REST
	
	VERSE
e|----------0-8-7-0-2-3-0-8-7-0-10-8-0-8-7-0-2-3-----------------------------|
B|---------------------------------------------------------------------------|
G|---------------------------------------------------------------------------|
D|-0--002--------------------------------------------------------------------|
A|-0--002--------------------------------------------------------------------|
D|-0--002--------------------------------------------------------------------|

	PRE-CHORUS
e|---------------------------------------------------------------------------|
B|---------------------------------------------------------------------------|
G|-5-5-5-55-5555/7-7--7777\5-5-5-55-5555\4-4-4/55-555\4-4-4/55-555-----------|
D|-5-5-5-55-5555/7-7--7777\5-5-5-55-5555\4-4-4/55-555\4-4-4/55-555-----------|
A|-3-3-3-33-3333/5-5--5555\3-3-3-33-3333\2-2-2/33-333\2-2-2/33-333-----------|
D|---------------------------------------------------------------------------|

	CHORUS
e|---------------------------------------------------------------------------|
B|---------------------------------------------------------------------------|
G|---------------------------------------------------------------------------|
D|-10-1010--99-99--22-22--00-00----10-1010--99-99--22-22--00-00--------------|
A|-10-1010--99-99--22-22--00-00----10-1010--99-99--22-22--00-00--------------|
D|-10-1010--99-99--22-22--00-00----10-1010--99-99--22-22--00-00--------------|

	CHORUS(cont.)
e|---------------------------------------------------------------------------|
B|---------------------------------------------------------------------------|
G|---------------------------------------------------------------------------|
D|-10-1010--99-99--22-22--00-00----10101010-9999--2--0-----------------------|
A|-10-1010--99-99--22-22--00-00----10101010-9999--2--0-----------------------|
D|-10-1010--99-99--22-22--00-00----10101010-9999--2--0-----------------------|

	CHORUS(cont.)
e|---------------------------------------------------------------------------|
B|---------------------------------------------------------------------------|
G|---------------------------------------------------------------------------|
D|-10101010-9999-9-----------------------------------------------------------|
A|-10101010-9999-9-----------------------------------------------------------|
D|-10101010-9999-9-----------------------------------------------------------|

	VERSE
e|----------0-8-7-0-2-3-0-8-7-0-10-8-0-8-7-0-2-3-----------------------------|
B|---------------------------------------------------------------------------|
G|---------------------------------------------------------------------------|
D|-0--002--------------------------------------------------------------------|
A|-0--002--------------------------------------------------------------------|
D|-0--002--------------------------------------------------------------------|

	PRE-CHORUS
e|---------------------------------------------------------------------------|
B|---------------------------------------------------------------------------|
G|-5-5-5-55-5555/7-7--7777\5-5-5-55-5555\4-4-4/55-555\4-4-4/55-555-----------|
D|-5-5-5-55-5555/7-7--7777\5-5-5-55-5555\4-4-4/55-555\4-4-4/55-555-----------|
A|-3-3-3-33-3333/5-5--5555\3-3-3-33-3333\2-2-2/33-333\2-2-2/33-333-----------|
D|---------------------------------------------------------------------------|

	CHORUS	
e|---------------------------------------------------------------------------|
B|---------------------------------------------------------------------------|
G|---------------------------------------------------------------------------|
D|-10-1010--99-99--22-22--00-00----10-1010--99-99--22-22--00-00--------------|
A|-10-1010--99-99--22-22--00-00----10-1010--99-99--22-22--00-00--------------|
D|-10-1010--99-99--22-22--00-00----10-1010--99-99--22-22--00-00--------------|

	CHORUS(cont.)
e|---------------------------------------------------------------------------|
B|---------------------------------------------------------------------------|
G|---------------------------------------------------------------------------|
D|-10-1010--99-99--22-22--00-00----10101010-9999--2--0-----------------------|
A|-10-1010--99-99--22-22--00-00----10101010-9999--2--0-----------------------|
D|-10-1010--99-99--22-22--00-00----10101010-9999--2--0-----------------------|

	BRIDGE
e|---------------------------------------------------------------------------|
B|---------------------------------------------------------------------------|
G|---------------------------------------------------------------------------|
D|-10101010-9999-9---2-33--2-33--2-33-2-33-----------------------------------|
A|-10101010-9999-9---2-33--2-33--2-33-2-33-----------------------------------|
D|-10101010-9999-9---2-33--2-33--2-33-2-33-----------------------------------|

	SOLO
e|---------------------------------------------------------------------------|
B|---3-3-8-8-7-7-8-8-3-3-8-8-7-7-8-8-5-5-5-7-7-7-8-8-8-10-10-10-13-12-12-----|
G|---------------------------------------------------------------------------|
D|---------------------------------------------------------------------------|
A|---------------------------------------------------------------------------|
D|---------------------------------------------------------------------------|

	SOLO
e|-15-14-17-15-----------------7-11-7-6-7-14-14-14-14-15-15-15-15-15-17-17---|
B|------------15-13-12-13-12-7-----------------------------------------------|
G|---------------------------------------------------------------------------|
D|---------------------------------------------------------------------------|
A|---------------------------------------------------------------------------|
D|---------------------------------------------------------------------------|

	SOLO
e|-17-17-20-19-19(let ring)--------------------------------------------------|
B|---------------------------------------------------------------------------|
G|---------------------------------------------------------------------------|
D|---------------------------------------------------------------------------|
A|---------------------------------------------------------------------------|
D|---------------------------------------------------------------------------|

	REST

e|----5-7-6-5----keep repeaating each time getting faster--------------------|
B|---------------------------------------------------------------------------|
G|---------------------------------------------------------------------------|
D|---------------------------------------------------------------------------|
A|---------------------------------------------------------------------------|
D|---------------------------------------------------------------------------|
		I'm not sure this is right but its the best I could do.
	
	This is the part that goes under the solo.(guitar 2)
e|---------------------------------------------------------------------------|
B|---------------------------------------------------------------------------|
G|---------------------------------------------------------------------------|
D|-10-1010--99-99--22-22--00-00----10-1010--99-99--22-22--00-00--------------|
A|-10-1010--99-99--22-22--00-00----10-1010--99-99--22-22--00-00--------------|
D|-10-1010--99-99--22-22--00-00----10-1010--99-99--22-22--00-00--------------|

	GUITAR 2(cont.)
e|---------------------------------------------------------------------------|
B|---------------------------------------------------------------------------|
G|---------------------------------------------------------------------------|
D|-9-9-9-99-9999/10-10-10101010----------------------------------------------|
A|-9-9-9-99-9999/10-10-10101010----------------------------------------------|
D|-9-9-9-99-9999/10-10-10101010----------------------------------------------|

	CHORUS(cont.)
e|---------------------------------------------------------------------------|
B|---------------------------------------------------------------------------|
G|---------------------------------------------------------------------------|
D|-10-1010--99-99--22-22--00-00----10-1010--99-99--22-22--00-00--------------|
A|-10-1010--99-99--22-22--00-00----10-1010--99-99--22-22--00-00--------------|
D|-10-1010--99-99--22-22--00-00----10-1010--99-99--22-22--00-00--------------|

	CHORUS(cont.)
e|---------------------------------------------------------------------------|
B|---------------------------------------------------------------------------|
G|---------------------------------------------------------------------------|
D|-10101010---9999---2222---0000----10101010--9999--2222--0000---------------|
A|-10101010---9999---2222---0000----10101010--9999--2222--0000---------------|
D|-10101010---9999---2222---0000----10101010--9999--2222--0000---------------|

	CHORUS(cont.)
e|---------------------------------------------------------------------------|
B|---------------------------------------------------------------------------|
G|---------------------------------------------------------------------------|
D|-10101010---9999---2222---0000----10101010--9999--2222--0000---------------|
A|-10101010---9999---2222---0000----10101010--9999--2222--0000---------------|
D|-10101010---9999---2222---0000----10101010--9999--2222--0000---------------|

	CHORUS/OUTRO
e|---------------------------------------------------------------------------|
B|---------------------------------------------------------------------------|
G|---------------------------------------------------------------------------|
D|-10101010---9999---2222---0000----10101010--9999--2------------------------|
A|-10101010---9999---2222---0000----10101010--9999--2------------------------|
D|-10101010---9999---2222---0000----10101010--9999--2------------------------|

************************************

| /   slide up
| \   slide down
| h   hammer-on
| p   pull-off
| ~   vibrato
| +   harmonic
| x   Mute note
| b   Bend
| pb  Pre-bend
| br  Bend release
| pbr Pre-bend release
| brb Bend release bend

************************************
Tap to rate this tab
 
# A B C D E F G H I J K L M N O P Q R S T U V W X Y Z