Song name
# A B C D E F G H I J K L M N O P Q R S T U V W X Y Z

Skillet - Those Nights tab

Song: Those Nights
Artist: Skillet
Album: Comatose (2006)

Tuning: Drop D

Intro
e|---------------------------------------------------------------------|
b|---------------------------------------------------------------------|
g|--5-5-9/7-------12/9---999995557777--5-5-9/7-------12/9---999995~~---|
d|--5-5-x/x---5-5--x/x---777773335555--5-5-x/x---5-5--x/x---777773~~---|
a|--3-3-7/5---5-5-10/7---777773335555--3-3-7/5---5-5-10/7---777773~~---|
D|------------5-5--------------------------------5-5-------------------|

Verse
e|---------------------------------------------------------------------|
b|---------------------------------------------------------------------|
g|------------------55555555------------------------55555555-----------|
d|--777777773333333355555555555555557777777733333333555555555555555----|
a|--777777773333333333333333555555557777777733333333333333335555555----|
D|--7777777733333333--------555555557777777733333333--------5555555----|
pm  ***************************************************************

e|-------------------------------|
b|-------------------------------|
g|-------------------------------|
d|--0000000000000000333333333----|
a|--0000000000000000333333333----|
D|--0000000000000000333333333----|
pm  ********************

Chorus
e|---------------------------------------------|
b|---------------------------------------------|
g|--5555------------5----5-5555----------5577--|
d|--5555555555533333333333-555555555557773355--|    x2
a|--3333555555533333333333-333355555557773355--|
D|------555555533333333333-----5555555777------|

Pre-Verse
e|---------------------------------|
b|---------------------------------|
g|-5-5-9/7-------12/9---999995~~---|
d|-5-5-x/x---5-5--x/x---777773~~---|
a|-3-3-7/5---5-5-10/7---777773~~---|
D|-----------5-5-------------------|

Verse
e|---------------------------------------------------------------------|
b|---------------------------------------------------------------------|
g|------------------55555555------------------------55555555-----------|
d|--777777773333333355555555555555557777777733333333555555555555555----|
a|--777777773333333333333333555555557777777733333333333333335555555----|
D|--7777777733333333--------555555557777777733333333--------5555555----|
pm  ***************************************************************

e|-------------------------------|
b|-------------------------------|
g|-------------------------------|
d|--0000000000000000333333333----|
a|--0000000000000000333333333----|
D|--0000000000000000333333333----|
pm  ********************

Chorus
e|---------------------------------------------|
b|---------------------------------------------|
g|--5555------------5----5-5555----------5577--|
d|--5555555555533333333333-555555555557773355--|    x2
a|--3333555555533333333333-333355555557773355--|
D|------555555533333333333-----5555555777------|

Pre-Bridge
e|-----------------------------------------------------------------------|
b|-----------------------------------------------------------------------|
g|--5-5-9/7-------12/9---999995557777--5-5-9/7-------12/9---999995557777-|
d|--5-5-x/x---5-5--x/x---777773335555--5-5-x/x---5-5--x/x---777773335555-|
a|--3-3-7/5---5-5-10/7---777773335555--3-3-7/5---5-5-10/7---777773335555-|
D|------------5-5--------------------------------5-5---------------------|

e|---------------------------------------------------------------------|
b|---------------------------------------------------------------------|
g|--5-5-9/7-------12/9---999995557777--5-5-9/7-------12/9---999995~~---|
d|--5-5-x/x---5-5--x/x---777773335555--5-5-x/x---5-5--x/x---777773~~---|
a|--3-3-7/5---5-5-10/7---777773335555--3-3-7/5---5-5-10/7---777773~~---|
D|------------5-5--------------------------------5-5-------------------|

Bridge/Solo
e|--------------------------------------------|
b|--------------------------------------------|
g|--5-5-xxxx----------------------------------|
d|--5-5-xxxx--5-5-//-\\--3-3-xxxx--3-3-//-\\--|
a|--3-3-xxxx--5-5-//-\\--3-3-xxxx--3-3-//-\\--|
D|------------5-5-//-\\--3-3-xxxx--3-3-//-\\--|

Very fast picking at this part:
e|-------------------------------------|
b|-------------------------------------|
g|---55555555444444445555555500000000--|
d|-------------------------------------|
a|-------------------------------------|
D|-------------------------------------|

And this part:
e|------------------------------------------------------|
b|------------------------------------------------------|
g|------------------------------------------------------|
d|---777777779999999910101010101010101212121212121212---|
a|------------------------------------------------------|
D|------------------------------------------------------|

Chorus
e|---------------------------------------------|
b|---------------------------------------------|
g|--5555------------5----5-5555----------5577--|
d|--5555555555533333333333-555555555557773355--|    x8
a|--3333555555533333333333-333355555557773355--|
D|------555555533333333333-----5555555777------|

End

Legend:
/ : slide up
\ : slide down
~ : hold note
x : mute string
Tap to rate this tab
 
# A B C D E F G H I J K L M N O P Q R S T U V W X Y Z