Song name
# A B C D E F G H I J K L M N O P Q R S T U V W X Y Z

Skillet - Hero tab

Hero by Skillet (Tabbed by zach)

Hello people, this is the awesome song hero by skillet. The reason
I tabbed this is because everyone elses tabs are incorrect or dont
show enough information and that made me mad so here it is and enjoy.



***# Tunning: Drop D #*** (but the recorded virsion is drop d
then tuned down a whole step and I cant tecnecly call it drop C because
its not so drob D tuned down a whole step it is.)


Intro:



*Ben-lead* 2X
e------------------------------------------------------------------|
B------------------------------10-10-------------------------------|
G--9-9-11-11-12-12-11-11-------------12-12-11-11-------------------|
D------------------------12-12-------------------------------------|
A------------------------------------------------------------------|
E------------------------------------------------------------------|

*Korey-rythom*----------*play muted*---------------------------------|
e--------------------------------------------------------------------|
B--------------------------------------------------------------------|
G--------------------------------------------------------------------|
D-2-2-2-2------------------------------------------------------------|
A-2-2-2-2-------2/12-12-12-12----------------------------------------|
E-2-2-2-2-------2/12-12-12-12----------------------------------------|






*Ben-lead* 4X
e----------12-12-14-14-15-15-14-14-------17-17-15-15-14-14---------|
B----------------------------------15-15---------------------------|
G------------------------------------------------------------------|
D------------------------------------------------------------------|
A------------------------------------------------------------------|
E------------------------------------------------------------------|


*Korey-rythom* 2X
e------------------------------------------------------------------|
B------------------------------------------------------------------|
G------------------------------------------------------------------|
D-2-2-2-2--2-2---5-5---0---2-2-2-2--2-2--5-5-5-7-7-----------------|
A-2-2-2-2--2-2---5-5---0---2-2-2-2--2-2--3-3-3-5-5-----------------|
E-2-2-2-2--2-2---5-5---0---2-2-2-2--2-2----------------------------|






*Ben-lead*
e-------------8p7-7-8p7-7-7-77-------------------------------------|
B------------------------------------------------------------------|
G------------------------------------------------------------------|
D------------------------------------------------------------------|
A------------------------------------------------------------------|
E------------------------------------------------------------------|


*Korey-rythom*
e------------------------------------------------------------------|
B------------------------------------------------------------------|
G------------------------------------------------------------------|
D------------------------------------------------------------------|
A--2-x-2-xx-2-0----------------------------------------------------|
E--2-x-2-xx-2-0----------------------------------------------------|





Verse:



*Both guitarists*
e------------------------------------------------------------------|
B------------------------------------------------------------------|
G-----------5-4----------------------------------------------------|
D-2-2-2-2---x-x----------------------------------------------------|
A-2-2-2-2---3-2----------------------------------------------------|
E-2-2-2-2-----------5-4-5-7-5-4-0----------------------------------|

*Both guitarists*
e------------------------------------------------------------------|
B------------------------------------------------------------------|
G---4---5-4--------------------------------------------------------|
D---x---x-x---------------0----------------------------------------|
A---2---3-2--------------------------------------------------------|
E-2---2---------5-4-5-7-5---4--------------------------------------|

*Both guitarists*
e------------------------------------------------------------------|
B------------------------------------------------------------------|
G-----------5-4---------------4---5-4------------------------------|
D-2-2-2-2---x-x---------------x---x-x--------------0---------------|
A-2-2-2-2---3-2---------------2---3-2------------------------------|
E-2-2-2-2----------0-4-5----2---2--------5-4-5-7-5---4-------------|






Pre chorus: 2X



*Both guitarists*
e------------------------------------------------------------------|
B------------------------------------------------------------------|
G------------------------------------------------------------------|
D-7-7-7-7--7-7--10-10-10-10-10-10-10-10----------------------------|
A-7-7-7-7--7-7--10-10-10-10-10-10-10-10----------------------------|
E-7-7-7-7--7-7--10-10-10-10-10-10-10-10----------------------------|

*Both guitarists*
e------------------------------------------------------------------|
B------------------------------------------------------------------|
G--------5-4--------5-4--------------------------------------------|
D-2-2-2--x-x---2-2--x-x--------------------------------------------|
A-2-2-2--3-2---2-2--3-2--------------------------------------------|
E-2-2-2--------2-2-------------------------------------------------|

Play this part only once affter youve cycled threw the others twice

*Both guitarists*
e------------------------------------------------------------------|
B------------------------------------------------------------------|
G------5-4---------------------------------------------------------|
D-2-2--x-x-----5-5-5-5---------------------------------------------|
A-2-2--3-2-----5-5-5-5---------------------------------------------|
E-2-2----------5-5-5-5---------------------------------------------|




Chorus:



*Korey-rythom* 2X
e------------------------------------------------------------------|
B------------------------------------------------------------------|
G------------------------------------------------------------------|
D--2-2-2-2--2-2---5--5-5---0--0-0---2-2-2-2--2-2--5-5-5-7-7--------|
A--2-2-2-2--2-2---5--5-5---0--0-0---2-2-2-2--2-2--3-3-3-5-5--------|
E--2-2-2-2--2-2---5--5-5---0--0-0---2-2-2-2--2-2-------------------|


*Ben-lead* 4X
e----------12-12-14-14-15-15-14-14-------17-17-15-15-14-14---------|
B----------------------------------15-15---------------------------|
G------------------------------------------------------------------|
D------------------------------------------------------------------|
A------------------------------------------------------------------|
E------------------------------------------------------------------|



Verse2:



*Both guitarists*
e------------------------------------------------------------------|
B------------------------------------------------------------------|
G-----------5-4----------------------------------------------------|
D-2-2-2-2---x-x----------------------------------------------------|
A-2-2-2-2---3-2----------------------------------------------------|
E-2-2-2-2-----------5-4-5-7-5-4-0----------------------------------|


*Both guitarists*
e------------------------------------------------------------------|
B------------------------------------------------------------------|
G---4---5-4--------------------------------------------------------|
D---x---x-x---------------0----------------------------------------|
A---2---3-2--------------------------------------------------------|
E-2---2---------5-4-5-7-5---4--------------------------------------|


e------------------------------------------------------------------|
B------------------------------------------------------------------|
G-----------5-4----------------------------------------------------|
D-2-2-2-2---x-x----------------------------------------------------|
A-2-2-2-2---3-2----------------------------------------------------|
E-2-2-2-2-----------5-4-5-7-5-4-0----------------------------------|


e------------------------------------------------------------------|
B------------------------------------------------------------------|
G---4---5-4--------------------------------------------------------|
D---x---x-x---------------0----------------------------------------|
A---2---3-2--------------------------------------------------------|
E-2---2---------5-4-5-7-5---4--------------------------------------|



Pre chorus2: 2X



*Both guitarists*
e------------------------------------------------------------------|
B------------------------------------------------------------------|
G------------------------------------------------------------------|
D-7-7-7-7--7-7--10-10-10-10-10-10-10-10----------------------------|
A-7-7-7-7--7-7--10-10-10-10-10-10-10-10----------------------------|
E-7-7-7-7--7-7--10-10-10-10-10-10-10-10----------------------------|

*Both guitarists*
e------------------------------------------------------------------|
B------------------------------------------------------------------|
G--------5-4--------5-4--------------------------------------------|
D-2-2-2--x-x---2-2--x-x--------------------------------------------|
A-2-2-2--3-2---2-2--3-2--------------------------------------------|
E-2-2-2--------2-2-------------------------------------------------|

The same as the first one

*Both guitarists*
e------------------------------------------------------------------|
B------------------------------------------------------------------|
G------5-4---------------------------------------------------------|
D-2-2--x-x-----5-5-5-5---------------------------------------------|
A-2-2--3-2-----5-5-5-5---------------------------------------------|
E-2-2----------5-5-5-5---------------------------------------------|


Chorus2:



*Korey-rythom* 2X
e------------------------------------------------------------------|
B------------------------------------------------------------------|
G------------------------------------------------------------------|
D--2-2-2-2--2-2---5--5-5---0--0-0---2-2-2-2--2-2--5-5-5-7-7--------|
A--2-2-2-2--2-2---5--5-5---0--0-0---2-2-2-2--2-2--3-3-3-5-5--------|
E--2-2-2-2--2-2---5--5-5---0--0-0---2-2-2-2--2-2-------------------|


*Ben-lead* 8X
e----------12-12-14-14-15-15-14-14-------17-17-15-15-14-14---------|
B----------------------------------15-15---------------------------|
G------------------------------------------------------------------|
D------------------------------------------------------------------|
A------------------------------------------------------------------|
E------------------------------------------------------------------|


in this part your picking to the beat of the drums in an up and down
fation

*korey-rythom*
e------------------------------------------------------------------|
B------------------------------------------------------------------|
G------------------------------------------------------------------|
D-22222222--5555--0000--22222222--555--7-7-------------------------|
A-22222222--5555--0000--22222222--333--5-5-------------------------|
E-22222222--5555--0000--22222222-----------------------------------|

*korey-rythom*
e------------------------------------------------------------------|
B------------------------------------------------------------------|
G------------------------------------------------------------------|
D--2-2-2-2-----2-2-2-2------2-2-2-2-2-2-2-2------------------------|
A--2-2-2-2-----2-2-2-2------2-2-2-2-2-2-2-2------------------------|
E--2-2-2-2-----2-2-2-2------2-2-2-2-2-2-2-2------------------------|


Bridge:

*Both guitarists* X3
e------------------------------------------------------------------|
B------------------------------------------------------------------|
G------------------------------------------------------------------|
D-7777--77---1010101010101010---2222--22----77777777---------------|
A-7777--77---1010101012121212---2222--22----55555555---------------|
E-7777--77---1010101010101010---2222--22----00000000---------------|

*Both guitarists*
e------------------------------------------------------------------|
B------------------------------------------------------------------|
G------------------------------------------------------------------|
D-10-10-10-10-10-10-10-10--12-12-12-12--13-13-13-13----------------|
A-10-10-10-10-10-10-10-10--12-12-12-12--13-13-13-13----------------|
E-10-10-10-10-10-10-10-10--12-12-12-12--13-13-13-13----------------|



*Ben-lead* 2X
e----------12-12-14-14-15-15-14-14-------17-17-15-15-14-14---------|
B----------------------------------15-15---------------------------|
G------------------------------------------------------------------|
D------------------------------------------------------------------|
A------------------------------------------------------------------|
E------------------------------------------------------------------|



*korey-rythom*
e------------------------------------------------------------------|
B------------------------------------------------------------------|
G------------------------------------------------------------------|
D-------2-2-2-2------2-2-2-2-2-2-2-2-------------------------------|
A-------2-2-2-2------2-2-2-2-2-2-2-2-------------------------------|
E-------2-2-2-2------2-2-2-2-2-2-2-2-------------------------------|


*korey-rythom*
e------------------------------------------------------------------|
B------------------------------------------------------------------|
G------------------------------------------------------------------|
D-2-2-2-2--2---5---2-2-2-2--2-2--555--777--------------------------|
A-2-2-2-2--2---5---2-2-2-2--2-2--333--555--------------------------|
E-2-2-2-2--2---5---2-2-2-2--2-2------------------------------------|



Chorus3:



*Ben-lead* 7X
e----------12-12-14-14-15-15-14-14-------17-17-15-15-14-14---------|
B----------------------------------15-15---------------------------|
G------------------------------------------------------------------|
D------------------------------------------------------------------|
A------------------------------------------------------------------|
E------------------------------------------------------------------|



*korey-rythom*
e------------------------------------------------------------------|
B------------------------------------------------------------------|
G------------------------------------------------------------------|
D--2-2-2-2--2-2---5--5-5---0--0-0---2-2-2-2--2-2--5-5-5-7-7--------|
A--2-2-2-2--2-2---5--5-5---0--0-0---2-2-2-2--2-2--3-3-3-5-5--------|
E--2-2-2-2--2-2---5--5-5---0--0-0---2-2-2-2--2-2-------------------|



*korey-rythom* X2
e------------------------------------------------------------------|
B------------------------------------------------------------------|
G------------------------------------------------------------------|
D-22222222--5555--0000--22222222--555--7-7-------------------------|
A-22222222--5555--0000--22222222--333--5-5-------------------------|
E-22222222--5555--0000--22222222-----------------------------------|


Outro:

*both guitarists*
e------------------------------------------------------------------|
B------------------------------------------------------------------|
G------------------------------------------------------------------|
D-22-22-22-55-00-0--2-5p2-5p2-5p2-2-22-22--------------------------|
A-22-22-22-55-00-0--2-5p2-5p2-5p2-2-22-22--------------------------|
E-22-22-22-55-00-0--2-5p2-5p2-5p2-2-22-22--------------------------|


---------------------------------------------------------------------

Thank you for reading I hope you enjoyed this tab. And thats
to bad that Ben is leaving the band but of well things happen.
So anyway who ever you are It is now 3:00 in the morning so I think ill be going 
to bed so .logging off.

-zach
Tap to rate this tab
 
# A B C D E F G H I J K L M N O P Q R S T U V W X Y Z