Song name
# A B C D E F G H I J K L M N O P Q R S T U V W X Y Z

Skillet - Yours To Hold tab

artist: skillet
album: comatose
song: yours to hold

tuning: standard (guitar 1/ acoustic)
        drop d (guitar 2/ electric)

key: D 
legend:   . - palm mute
          ~ - sustain
         ~~ - longer sustain
          b - bend to 
          r - release from bending
          / - slide
          x - dead
          
 -----------
|   verse   |
 -----------

guitar 1 :

e|--00000000--3333--222-000-333333--|
B|--33333333--3333--333-222-333333--|
G|--22222222--0000--444-222-000000--| (2x)
D|--00000000--0000--444-222-000000--|
A|------------2222--222-000-222222--|
E|------------3333----------333333--|


 ----------------
|   pre chorus   |
 ----------------

guitar 1:

e|--22222222--00000000--00000000--33333333--|
B|--33333333--22222222--33333333--33333333--|
G|--44444444--22222222--22222222--00000000--|
D|--44444444--22222222--00000000--00000000--|
A|--22222222--00000000--xxxxxxxx--22222222--|
E|----------------------22222222--33333333--|


 ------------
|   chorus   |
 ------------

guitar 1:


e|--00000000--33333333--222-000-333333--|
B|--33333333--33333333--333-222-333333--|
G|--22222222--00000000--444-222-000000--| (2x)
D|--00000000--00000000--444-222-000000--|
A|------------22222222--222-000-222222--|
E|------------33333333----------333333--|

 --------------------
|   interlude/solo   |
 --------------------

guitar 1:

e|--00000000--33333333--00000000--3333--|
B|--33333333--33333333--33333333--3333--|
G|--22222222--00000000--22222222--0000--|
D|--00000000--00000000--00000000--0000--|
A|------------22222222------------2222--|
E|------------33333333------------3333--|

guitar 2:

e|---------------------------------------------------------------------------------------|
B|----10-----------------------10--------------------10----------------------------------|
G|--7----7-9~-11-11b12r11~---7----7-6~-9-9b11r9~---7----7-9~-11-11b12r11~--11b12r11-7~~--|
D|---------------------------------------------------------------------------------------|
A|---------------------------------------------------------------------------------------|
E|---------------------------------------------------------------------------------------|


 ------------
|   verse2   |
 ------------

guitar 1:

e|--00000000--3333--222-000-333333--|
B|--33333333--3333--333-222-333333--|
G|--22222222--0000--444-222-000000--| (2x)
D|--00000000--0000--444-222-000000--|
A|------------2222--222-000-222222--|
E|------------3333----------333333--|

guitar 2:

e|--------------------------------------|
B|----10---------------10-----10--------| 
G|--7----7~-/-12-11--7----7-6----6-4~~--| (2x)
D|--------------------------------------|
A|--------------------------------------|
E|--------------------------------------|


 -----------------
|   pre chorus 2  |
 -----------------

guitar 1:

e|--22222222--00000000--00000000--33333333--|
B|--33333333--22222222--33333333--33333333--|
G|--44444444--22222222--22222222--00000000--|
D|--44444444--22222222--00000000--00000000--|
A|--22222222--00000000--xxxxxxxx--22222222--|
E|----------------------22222222--33333333--|

guitar 2:

e|-----------------------------------------------------------------------------|
B|-----------------------------------------------------------------------------|
G|--4444444-6666666--2222222-4444444--0000000-2222222--11111111111111-9999999--|
D|-----------------------------------------------------------------------------|
A|-----------------------------------------------------------------------------|
E|-----------------------------------------------------------------------------|

    ....... .......  ....... .......  ....... .......   . . . . . . . .......


 --------------
|   chorus 2   |
 --------------

guitar 1:

e|--00000000--33333333--222-000-333333--|
B|--33333333--33333333--333-222-333333--|
G|--22222222--00000000--444-222-000000--| (2x)
D|--00000000--00000000--444-222-000000--|
A|------------22222222--222-000-222222--|
E|------------33333333----------333333--|

guitar 2: (distorted)

e|---------------------------------------|
B|---------------------------------------|
G|---------------------------------------| (2x)
D|--00000000--55555555--999-111111-5555--|
A|--00000000--55555555--999-111111-5555--|
E|--00000000--55555555--999-111111-5555--|
                             ^ (elevens, not ones)

 ------------
|   bridge   |
 ------------

guitar 1:

e|--0000000--222-000--0000000--222-000--000-333--000-333--000-333--000-333--|
B|--3333333--333-222--3333333--333-222--333-333--222-333--333-333--222-333--|
G|--0000000--444-222--0000000--444-222--222-000--222-000--222-000--222-000--|
D|--2222222--444-222--2222222--444-222--000-000--222-000--000-000--222-000--|
A|--2222222--222-000--2222222--222-000--xxx-222--000-222--xxx-222--000-222--|
E|--0000000-----------0000000-----------222-333------333--222-333------333--|

guitar 2:

e|--------------------------------------------------------------------------|
B|--------------------------------------------------------------------------|
G|--------------------------------------------------------------------------|
D|--2222222--999-777--2222222--999-777--444-555--777-555--444-555--777-555--|
A|--2222222--999-777--2222222--999-777--444-555--777-555--444-555--777-555--|
E|--2222222--999-777--2222222--999-777--444-555--777-555--444-555--777-555--|
                                                          ...      ...

***fill


guitar 1:

e|--33333333--|
B|--33333333--|
G|--00000000--|
D|--00000000--|
A|--22222222--|
E|--33333333--|

guitar 2:

e|------------|
B|------------|
G|------------|
D|--55555555--|
A|--55555555--|
E|--55555555--|
    .....

--------------
|   chorus 3   |
 --------------

guitar 1:

e|--00000000--33333333--222-000-333333--|
B|--33333333--33333333--333-222-333333--|
G|--22222222--00000000--444-222-000000--| (4x)
D|--00000000--00000000--444-222-000000--|
A|------------22222222--222-000-222222--|
E|------------33333333----------333333--|

guitar 2: (distorted)

e|---------------------------------------|
B|---------------------------------------|
G|---------------------------------------| (4x)
D|--00000000--55555555--999-111111-5555--|
A|--00000000--55555555--999-111111-5555--|
E|--00000000--55555555--999-111111-5555--|

 -----------
|   outro   |
 -----------

 guitar 1:

e|-------------------------------0----|
B|--------3-------------3-------------|
G|----0-------0-----------4--------2--|
D|------2---2---2-----4--------2------| (2x)
A|--2---------------2--------0--------|
E|------------------------------------|


*** end with

e|--0~~--|
B|--3~~--|
G|--0~~--|
D|--2~~--|
A|--2~~--|
E|--0~~--|

____________________________________________________________________________________
hey guys, this is the tab i made by ear for the song. i think i got all the guitar
parts so you can trust this is every part of guitars. i didn't include the keyboard
i want your comments or suggestions and if you find time, please rate :) thanks
____________________________________________________________________________________

i'm stretching but you're just out of reach!
2k11 dropdead
Tap to rate this tab
 
# A B C D E F G H I J K L M N O P Q R S T U V W X Y Z