Song name
# A B C D E F G H I J K L M N O P Q R S T U V W X Y Z

Skillet - Awake And Alive tab

-----------------------------------------------------------------------------
			     Awake and Alive - Skillet
-----------------------------------------------------------------------------
Tabbed by:Foghorn
Email:killer2518ivory@hotmail.com

Tuning: Drop D
Intro
e|-------------------------|
B|-------------------------|
G|-------------------------|
D|-------------------------|
A|--------------------5555-|
D|-222222222222etc...------|
   ************       ++++

Pre-Verse X2
e|---------------------------------------------------------------------------|
B|---------------------------------------------------------------------------|
G|---------------22-2x5-xx-7~------------------------------------------------|
D|-22-2-02--xx20-22-2x5-xx-7~------------------------------------------------|
A|-22-2-02--xx20-00-0x3-xx-5~------------------------------------------------|
D|-22-2-02--xx20-------------------------------------------------------------|

Verse X2
e|---------------------------------------------------------------------------|
B|---------------------------------------------------------------------------|
G|---------------------------------------------------------------------------|
D|-22-2--2-2--22-2--2-2--xxxx--22-2--2-2--22-2--2-2--/1010-------------------|
A|-22-2--2-2--22-2--2-2--xxxx--22-2--2-2--22-2--2-2--/1010-------------------|
D|-22-2--2-2--22-2--2-2--xxxx--22-2--2-2--22-2--2-2--/1010-------------------|
   ** *  * *  ** *  * *        ** *  * *  ** *  * *  (tens)
Verse part 2
e|---------------------------------------------------------------------------|
B|---------------------------------------------------------------------------|
G|-----------------------------22-2--2-2--55-5--5-5-7------------------------|
D|-22-2--2-2--22-2--2-2--xxxx--22-2--2-2--55-5--5-5-7-(let ring)-------------|
A|-22-2--2-2--22-2--2-2--xxxx--00-0--0-0--55-5--5-5-5------------------------|
D|-22-2--2-2--22-2--2-2--xxxx-------------55-5--5-5--------------------------|
   ** *  * *  ** *  * *        ** *  * *  ** *  * *
Chorus X3
e|---------------------------------------------------------------------------|
B|---------------------------------------------------------------------------|
G|------5--5-----------------------------------------------------------------|
D|-2--2-5--5-5--5-0--0-------------------------------------------------------|
A|-2--2-3--3-5--5-0--0-------------------------------------------------------|
D|-2--2------5--5-0--0-------------------------------------------------------|
Chorus part 2
e|---------------------------------------------------------------------------|
B|---------------------------------------------------------------------------|
G|---------------------------------------------------------------------------|
D|-5-5-5-5-5-5-5-2-2-2-2-4---------------------------------------------------|
A|-5-5-5-5-5-5-5-2-2-2-2-4---------------------------------------------------|
D|-3-3-3-3-3-3-3-0-0-0-0-2---------------------------------------------------|
Pre-verse again
Verse parts 1 and 2
Chorus parts 1 and 2

Bridge
e|----------------------------------------------------------------------------|
B|----------------------------------------------------------------------------|
G|---------------------------222222----------55555555777777772222222255555555-|
D|-22-22-450-22xx22-450------222222002222220055555555777777772222222255555555-|
A|-22-22-450-22xx22-450--X2--000000002222220033333333555555550000000033333333-|
D|-22-22-450-22xx22-450------------0022222200---------------------------------|
                                                             ****************
Solo (only guitar 1. Wasn't able to tab out guitar 2)
e|-------------------------------------------------12b-----------------------|
B|------------------------15-12/13/12/13/12----------------------------------|
G|---------12h14h16-11-12------------------12-12/13--------------------------|
D|-12h14h16---------------------------------------------------12h14h16p14h16-|
A|----------------------------------------------------12h14h15---------------|
D|---------------------------------------------------------------------------|

e|-----------12h14h15p14p12-------------------12h14h15/17\14-----------------|
B|---------12--------------12---------------12--------------12---------------|
G|-11h12h14------------------12p11--11h12h14------------------12p11----------|
D|---------------------------------------------------------------------------|
A|---------------------------------------------------------------------------|
D|---------------------------------------------------------------------------|

e|------------------------------------------10-12-14-15-17-20/21\20/21--------|
B|---------------10----10-12-10-12-13-12-13-----------------------------------|
G|-9-11-12-11-12----12--------------------------------------------------------|
D|----------------------------------------------------------------------------|
A|----------------------------------------------------------------------------|
D|----------------------------------------------------------------------------|
Chorus
Beginning of bridge, end on 5's

************************************

| /   slide up
| \   slide down
| h   hammer-on
| p   pull-off
| ~   vibrato
| +   harmonic
| x   Mute note
| b   Bend
| pb  Pre-bend
| br  Bend release
| pbr Pre-bend release
| brb Bend release bend

************************************
Tap to rate this tab
 
# A B C D E F G H I J K L M N O P Q R S T U V W X Y Z