Song name
# A B C D E F G H I J K L M N O P Q R S T U V W X Y Z

Skillet - Angels Fall Down tab

I think i heard it incorrectly. Go to this link: 
http://www.skillet.com/video/a3641d-angels-fall-down/.
I would appreciate if someone post a better one.


Guitar Solo: 
E--------------|---------------|--------------|-----------------| 
B--------------|---------------|--------------|-----------------| 
G-----7-7-7h9--|-----7-7-7h9---|-----9-9-9h11-|-----12-12-11----| 
D---0----------|---0-----------|--------------|-----------------| 
A--------------|---------------|---7----------|--10-------------| 
E--------------|---------------|--------------|-----------------|

 
E--------------|---------------|--------------|-----------------| 
B--------------|---------------|--------------|-----------------| 
G-----7-7-7h9--|-----7-7-7h6---|-----9-9-9h11-|9----12-12-11----| 
D---0----------|---0-----------|--------------|-----------------| 
A--------------|---------------|---7----------|--10-------------| 
E--------------|---------------|--------------|-----------------|

 
E--------------|---------------|--------------|-----------------| 
B--------------|---------------|--------------|-----------------| 
G-----7-7-7h9--|-----7-7-7h9---|-----9-9-9h11-|9----12-12-11--12| 
D---0----------|---------------|--------------|-----------------| 
A--------------|---0-----------|---7----------|--10-------------| 
E--------------|---------------|--------------|-----------------|


E--------------|---------------|--------------|-----------------| 
B--------------|---------------|--------------|-----------------| 
G-----7-7-7h9--|-----7-7-7h6---|-----9-9-9h11-|-----12-12-11----| 
D---0----------|---------------|--------------|-----------------| 
A--------------|---0-----------|---7----------|--10-------------| 
E--------------|---------------|--------------|-----------------|

E--------------------------------------------------------------------------| 
B--7-7-7-5-5-5-7-7-15-15-15-14-14-14-14s15-10-10-10-10s12-3-3-3-15-15-15-15|
G--------------------------------------------------------------------------|

E---------------------------21-21s22-------------------------------| 
B--7-7-7-5-5-5-7-7-15-15-15-----------10-10-10-10s12-3-3-3s15------|
G------------------------------------------------------------------|
Tap to rate this tab
 
# A B C D E F G H I J K L M N O P Q R S T U V W X Y Z