Song name
# A B C D E F G H I J K L M N O P Q R S T U V W X Y Z

Skillet - The Older I Get tab

this is my first tab so im sorry if it isnt right.........
the older I get
skillet
comatose
-----------------------------------------------------------------------------|e
-------18p17---------------------------13-13----------------18p17------------|B
-12h14---------14-14-12-12-12-12-12-12-------16-16-12-12h14-------14-14-12---|G
-----------------------------------------------------------------------------|D
-----------------------------------------------------------------------------|A

|-------------------------|
|------13-13-13h15--------|
|12h14-------------12-12--|
|-------------------------|
|-------------------------|
|-------------------------|
Verse:(no chord for first words):the walls between you and I.......
|-------------------------|
|-------------------------|
|-5-----------------------|  x2
|-5--5--3-5---------------|
|-3--5--3-5---------------|
|----3--1-3---------------|
Pre-Chorus:
|---------------------------|
|---------------------------|
|---------------------------|
|-7--9--10------------------|
|-7--9--10------------------|
|-5--7--8-------------------|

Chorus:
|------------------------------------------|
|------------------------------------------|
|--------7---------------------------------|
|-10--5--7---9-----------------------------|
|-10--5--5---9-----------------------------|
|-8---3------7-----------------------------|

(Intro)
(verse)

Bridge:

|-----------------------------------------------------------------------|
|-18-18---17-17-----18-18--17-17----15-13----15-13----------------------|
|----------------12--------------12-------12-------12-------------------| x3
|-----------------------------------------------------------------------|
|-----------------------------------------------------------------------|
|-----------------------------------------------------------------------|

then:
|-----------------------------------------------------------------|
|-----------------------------------------------------------------|
|-----------------------------------------------------------------|
|--10--9---7-----9--10-10-10-10-10-10-----------------------------|
|--10--9---7-----9--10-10-10-10-10-10-----------------------------|
|--8---7---5-----7--8--8--8--8--8--8------------------------------|

(chorus)x2

(intro x3)

outro:

|---------------------------------|
|---------------------------------|
|---------------------------------|
|-10----7--9--10------------------|
|-10----7--9--10------------------|
|-8-----5--7--8-------------------|

I didnt put the strumming or how many times you play the chord............
I thought maybe you can figure out that:)


God bless and play with love for him!!!!!!!!!!!!!


-end-

key:
p=pull off
h=hammer on
Tap to rate this tab
 
# A B C D E F G H I J K L M N O P Q R S T U V W X Y Z