Skillet - You Are My Hope tab

You are my hope - Skillet
Tuning Standard
tabbed by jtizzle19
the rhythm is tricky just listen to the song and youll get it. please rate and tell me 
how i did or comment if you have questions!

this little lick you play throughout the intro and verses

e|-----------------------15------------------------------|
B|---13-------13-----13----------------------------------|
G|-----9/10-10--10-9-------------------------------------|
D|-10------------------12--12----------------------------|
A|-------------------------------------------------------|
E|-------------------------------------------------------|

intro & verse
e|-------------------------------------------------------|
B|-------------------------------------------------------|
G|-5555--------------------------------------------------|
D|-5555-5-55--7777-5-55----------------------------------|
A|-3333-5-55--7777-5-55----------------------------------|
E|------3-33--5555-3-33----------------------------------| X8


chorus
e|-------------------------------------------------------|
B|-------------------------------------------------------|
G|-55555-5-55--------------------------------------------|
D|-55555-5-55-55555-5-55--77777-55555-33333-3-33---------|
A|-33333-3-33-55555-5-55--77777-55555-33333-3-33---------|
E|------------33333-3-33--55555-33333-11111-1-11---------|

bridge
e|---------------------------------------------------------------------|
B|---------------------------------------------------------------------|
G|--------------55555--------------55555--------------55555-77777777---|
D|-55555555-333-55555-55555555-333-55555-55555555-333-55555-77777777---|
A|-55555555-333-33333-55555555-333-33333-55555555-333-33333-55555555---|
E|-33333333-111-------33333333-111-------33333333-111------------------|

e|-------------------------------------------------------|
B|-------------------------------------------------------|
G|-1010101010101010--------------------------------------|
D|-1010101010101010--------------------------------------|
A|-8-8-8-8-8-8-8-8---------------------------------------|
E|-------------------------------------------------------|


Please rate!
Tap to rate this tab
 
# A B C D E F G H I J K L M N O P Q R S T U V W X Y Z