Song name
# A B C D E F G H I J K L M N O P Q R S T U V W X Y Z

Skillet - Awake And Alive tab

Intro and riff:


A----------------------------------------------------------------------|
B----------------------------------------------------------------------|
G----------------------------------------------------------------------|
D----------------------------------------------------------------------|
A-7-7-7-7-7-7-7-7-7-7-7-7-7-7-7-7-7-7-7-7-7-7-7-7-7-7-7-7-7-7-7-7------|
E----------------------------------------------------------------------|




E--------------------------------------------------------------------|
B--------------------------------------------------------------------|
G----------------------------------5---------------------------------|
D---2-2--2--0-2---2-0-------7-7-7---5---2----------------------------|
A---2-2--2--0-2---2-0-------7-7-7-0-3---2----------------------------|
E---0-0--0--0-0---0-0-------5-5-5-------0----------------------------|
Tap to rate this tab
# A B C D E F G H I J K L M N O P Q R S T U V W X Y Z