Song name
# A B C D E F G H I J K L M N O P Q R S T U V W X Y Z

Skillet - Monster tab

'Monster' by Skillet on the Awake album
Tuning: Drop C
Tabbed by: panterarocks25
Guitarist: Ben Kasica


/ - Slide
x - mute (sounds best towadrs the 1st fret)


The Intro starts with only Ben for one cycle then the band joins

Intro(x5) 0:00

D]----------------------------------------------------|
A]----------------------------------------------------|
F]----------------------------------------------------|
C]-5-5-5-0--x-0--8-8-8-0--x-0--5-5-5-0--x-0--7-10-5-3-|
G]-5-5-5-0--x-0--8-8-8-0--x-0--5-5-5-0--x-0--7-10-5-3-|
C]-5-5-5-0--x-0--8-8-8-0--x-0--5-5-5-0--x-0--7-10-5-3-|


Chorus 0:40

D]--------------------------------|
A]--------------------------------|
F]-3-3-3-3-3-3-3-3--5-5-5-5-5-5-5-|
C]-3-3-3-3-3-3-3-3--5-5-5-5-5-5-5-|
G]-1-1-1-1-1-1-1-1--3-3-3-3-3-3-3-|
C]--------------------------------|


(x2) do big slide then start the riff

D]-----------------------------------------------------------|
A]-----------------------------------------------------------|
F]-----------------------------------------------------------|
C]-0-0-0-0-0-0-0-0--3-3-3-3-3-3-3--8-8-8-8-8-8-8-8--7-10-5-3-|
G]-0-0-0-0-0-0-0-0--3-3-3-3-3-3-3--8-8-8-8-8-8-8-8--7-10-5-3-|
C]-0-0-0-0-0-0-0-0--3-3-3-3-3-3-3--8-8-8-8-8-8-8-8--7-10-5-3-|


Do these hits 2 times 0:57

D]--------------------------|
A]--------------------------|
F]--------------------------|
C]-0-0--0-3-3--3/8-8--8-5-7-|
G]-0-0--0-3-3--3/8-8--8-5-7-|
C]-0-0--0-3-3--3/8-8--8-5-7-|


Intro: (x2)  1:05


D]----------------------------------------------------|
A]----------------------------------------------------|
F]----------------------------------------------------|
C]-5-5-5-0--x-0--8-8-8-0--x-0--5-5-5-0--x-0--7-10-5-3-|
G]-5-5-5-0--x-0--8-8-8-0--x-0--5-5-5-0--x-0--7-10-5-3-|
C]-5-5-5-0--x-0--8-8-8-0--x-0--5-5-5-0--x-0--7-10-5-3-|


Chorus  1:25

D]--------------------------------|
A]--------------------------------|
F]-3-3-3-3-3-3-3-3--5-5-5-5-5-5-5-|
C]-3-3-3-3-3-3-3-3--5-5-5-5-5-5-5-|
G]-1-1-1-1-1-1-1-1--3-3-3-3-3-3-3-|
C]--------------------------------|


(x3) do big slide then start the riff again

D]-----------------------------------------------------------|
A]-----------------------------------------------------------|
F]-----------------------------------------------------------|
C]-0-0-0-0-0-0-0-0--3-3-3-3-3-3-3--8-8-8-8-8-8-8-8--7-10-5-3-|
G]-0-0-0-0-0-0-0-0--3-3-3-3-3-3-3--8-8-8-8-8-8-8-8--7-10-5-3-|
C]-0-0-0-0-0-0-0-0--3-3-3-3-3-3-3--8-8-8-8-8-8-8-8--7-10-5-3-|


Do these hits 2 more times  1:50

D]--------------------------|
A]--------------------------|
F]--------------------------|
C]-0-0--0-3-3--3/8-8--8-5-7-|
G]-0-0--0-3-3--3/8-8--8-5-7-|
C]-0-0--0-3-3--3/8-8--8-5-7-|


Bridge 1:56

D]--------------------------------------------------------------------|
A]--------------------------------------------------------------------|
F]----------------------------------------------------5-5-5-5-5-5-5-5-|
C]-5-5-5-5-5-5-5-5--0-0-0-0-0-0-0-0--3-3-3-3-3-3-3-3--5-5-5-5-5-5-5-5-|
G]-5-5-5-5-5-5-5-5--0-0-0-0-0-0-0-0--3-3-3-3-3-3-3-3--3-3-3-3-3-3-3-3-|
C]-5-5-5-5-5-5-5-5--0-0-0-0-0-0-0-0--3-3-3-3-3-3-3-3------------------|

D]-------------------------------------------------------------|
A]-------------------------------------------------------------|
F]-------------------------------------------------------------|
C]-5-5-5-5-5-5-5-5--0-0-0-0-0-0-0-0--7-7-7-7-7-7-7-7--7-10-5-3-|
G]-5-5-5-5-5-5-5-5--0-0-0-0-0-0-0-0--7-7-7-7-7-7-7-7--7-10-5-3-|
C]-5-5-5-5-5-5-5-5--0-0-0-0-0-0-0-0--7-7-7-7-7-7-7-7--7-10-5-3-|


This just Ben playing the rest of the band stops  2:10

D]-------------------------------------------------------------------|
A]-------------------------------------------------------------------|
F]-7-7-7-7-7-7-7-7--10-10-10-10-10-10-10-10--15-15-15-15-15-15-15-15-|
C]-7-7-7-7-7-7-7-7--10-10-10-10-10-10-10-10--15-15-15-15-15-15-15-15-|
G]-5-5-5-5-5-5-5-5---8--8--8--8--8--8--8--8--13-13-13-13-13-13-13-13-|
C]-------------------------------------------------------------------|


Chorus(x3)  2:18

D]-----------------------------------------------------------|
A]-----------------------------------------------------------|
F]-----------------------------------------------------------|
C]-0-0-0-0-0-0-0-0--3-3-3-3-3-3-3--8-8-8-8-8-8-8-8--7-10-5-3-|
G]-0-0-0-0-0-0-0-0--3-3-3-3-3-3-3--8-8-8-8-8-8-8-8--7-10-5-3-|
C]-0-0-0-0-0-0-0-0--3-3-3-3-3-3-3--8-8-8-8-8-8-8-8--7-10-5-3-|


Do the same hits as earlier(x3)  2:39

D]--------------------------|
A]--------------------------|
F]--------------------------|
C]-0-0--0-3-3--3/8-8--8-5-7-|
G]-0-0--0-3-3--3/8-8--8-5-7-|
C]-0-0--0-3-3--3/8-8--8-5-7-|


On the last time do exactly the same way the only differacne is the end, this time you 
are goinig to end the song on the 3rd fret so here it is...

D]--------------------------|
A]--------------------------|
F]--------------------------|
C]-0-0--0-3-3--3/8-8--8-5-3-|
G]-0-0--0-3-3--3/8-8--8-5-3-|
C]-0-0--0-3-3--3/8-8--8-5-3-|
Tap to rate this tab
# A B C D E F G H I J K L M N O P Q R S T U V W X Y Z