Song name
# A B C D E F G H I J K L M N O P Q R S T U V W X Y Z

Skillet - Forgiven tab

Song: Forgiven
Artist: Skillet
Album: Awake (2009)

Tuning: Drop D

The second tab for this song was almost perfect, just changed the small part after the 
bridge to be a little more accurate.

Intro:
e|----------------------------------------------|
b|----------------------------------------------|
g|---------------55533-----------------55533----|
d|---77772222333355533-----77772222333355533----|
a|---77772222333333311-----77772222333333311----|
D|---777722223333----------777722223333---------|

Break

Verse:
e|----------------------------------------------|
b|----------------------------------------------|
g|----------------------------------------------|
d|----------------------------------------------|
a|----------------------------------------------|
D|---777777772222222233333333101010109999-------|
pm   ************************ * * * *****

e|----------------------------------------------|
b|----------------------------------------------|
g|----------------------------------------------|
d|-----------------------------------55555555---|
a|-----------------------------------55555555---|
D|---7777777722222222333333335555555555555555---|
pm   ********************************

Chorus:
e|----------------------------------------------|
b|----------------------------------------------|
g|--5555------------5555------------------------|
d|--55555555777733335555555577775555------------|  x2
a|--33335555777733333333555577775555------------|
D|------555577773333----555577775555------------|

Pre-Verse:
e|----------------------------------------------|
b|----------------------------------------------|
g|---------------55533-----------------55533----|
d|---77772222333355533-----77772222333355533----|
a|---77772222333333311-----77772222333333311----|
D|---777722223333----------777722223333---------|

Verse:
e|----------------------------------------------|
b|----------------------------------------------|
g|----------------------------------------------|
d|----------------------------------------------|
a|----------------------------------------------|
D|---77777777222222223333333355555555-----------|
pm   ********************************

e|----------------------------------------------|
b|----------------------------------------------|
g|----------------------------------------------|
d|----------------------------------------------|
a|----------------------------------------------|
D|---77777777222222223333333355555555-----------|
pm   ********************************

e|----------------------------------------------|
b|----------------------------------------------|
g|----------------------------------------------|
d|----------------------------------------------|
a|----------------------------------------------|
D|---777777772222222233333333101010109999-------|
pm   ************************ * * * *****

e|----------------------------------------------|
b|----------------------------------------------|
g|----------------------------------------------|
d|-----------------------------------55555555---|
a|-----------------------------------55555555---|
D|---7777777722222222333333335555555555555555---|
pm   ********************************

Chorus:
e|----------------------------------------------|
b|----------------------------------------------|
g|--5555------------5555------------------------|
d|--55555555777733335555555577775555------------|  x4
a|--33335555777733333333555577775555------------|
D|------555577773333----555577775555------------|

Bridge:
e|-----------------------------------------------------------------|
b|-----------------------------------------------------------------|
g|----------55555555--------55555555-------------------------------|
d|--00003333555555550000333355555555555x3333-55553333333333333-----|
a|--00003333333333330000333333333333555x3333-55553333333333333-----|
D|--00003333--------00003333--------555x3333-55553333333333333-----|

Pre-Chorus:
e|----------------3-----------------------------|
b|----------------------------------------------|
g|----5----7------------------------------------|
d|---5--------10--------------------------------|
a|--3----5---7---3------------------------------|
D|------5---7---3-------------------------------|

Chorus:
e|-------------------------------|
b|-------------------------------|
g|---5555------------------------|
d|---5555555577775555------------|
a|---3333555577775555------------|
D|-------555577775555------------|

e|----------------------------------------------|
b|----------------------------------------------|
g|--5555------------5555------------------------|
d|--55555555777733335555555577775555------------|  x2
a|--33335555777733333333555577775555------------|
D|------555577773333----555577775555------------|

End on
e|------|
b|------|
g|--5~--|
d|--5~--|
a|--3~--|
D|------|

Tabbed By Caleb McKee
Tabbed On Sept 23, 2011
Email: TeamMM3_Xbox@Yahoo.com
Check out my youtube channel if you'd like at:
http://www.youtube.com/user/mckeec91


Thanks!!!
Tap to rate this tab
 
# A B C D E F G H I J K L M N O P Q R S T U V W X Y Z