Song name
# A B C D E F G H I J K L M N O P Q R S T U V W X Y Z

Skillet - Forsaken tab

Artist: Skillet
Song: Forsaken
Tabbed By: JAKKRAB1T
Tuning: Drop C

Intro: (distortion)

Part 1:

D|-------------------------------------------------------------------------|
A|-------------------------------------------------------------------------|
F|-------------8/7-x-8--------------8/7-x-10-------------------------------|
C|--0-0--0-0-x-x/x-x-x---0-0--0-0-x-x/x-x-x--------------------------------|
G|--0-0--0-0-x-6/5-x-6---0-0--0-0-x-6/5-x-8--------------------------------|
C|--0-0--0-0-x-----------0-0--0-0-x----------------------------------------|

D|-------------------------------------------------------------------------|
A|-------------------------------------------------------------------------|
F|-------------8/7-x-8-----------------------------------------------------|
C|--0-0--0-0-x-x/x-x-x---0-0--0-0----------(pause)-------------------------|
G|--0-0--0-0-x-6/5-x-6---0-0--0-0------------------------------------------|
C|--0-0--0-0-x-----------0-0--0-0------------------------------------------|

Part 2:

D|-------------------------------------------------------------------------|
A|-------------------------------------------------------------------------|
F|-------------8/7-x-8--------------8/7-x-10-------------------------------|
C|--0-0--0-0-x-x/x-x-x---0-0--0-0-x-x/x-x-x--------------------------------|
G|--0-0--0-0-x-6/5-x-6---0-0--0-0-x-6/5-x-8--------------------------------|
C|--0-0--0-0-x-----------0-0--0-0-x----------------------------------------|

D|-------------------------------------------------------------------------|
A|-------------------------------------------------------------------------|
F|-------------8/7-x-8--------------8/7-x-10-------------------------------|
C|--0-0--0-0-x-x/x-x-x---0-0--0-0-x-x/x-x-x--------------------------------|
G|--0-0--0-0-x-6/5-x-6---0-0--0-0-x-6/5-x-8--------------------------------|
C|--0-0--0-0-x-----------0-0--0-0-x----------------------------------------|

Verse: (clean) (you'll have to figure out the strum pattern)

D|-------------------------|
A|-------------------------|
F|-------------------------| (2x)
C|-0---------8--------3--5-|
G|-0--3h5p3--8--(3x)--3--5-|
C|-0---------8--------3--5-|

Prechorus: (acoustic) (again, you'll have to figure out the strum pattern)

D|-----------------|
A|-----------------|
F|-----------------| 
C|-8---5---3-------|
G|-8---5---3-------|
C|-8---5---3-------|

Chorus: (distorted)

D|-------------------------------------|
A|-------------------------------------|
F|-------------------------------------| 
C|-0--10-10-10-10--0-0-5--(3x)--10---5-| (2x)
G|-0--10-10-10-10--0-0-5--------10---5-|
C|-0--10-10-10-10--0-0-5--------10---5-|

Repeat: 
Intro: Part 2
Verse
Prechorus
Chorus (3x this time)

Bridge: (distorted)

D|---------------------------------------|      |-------------|
A|---------------------------------------|      |-------------|
F|---------------8-----------------------| (4x) |-------------|
C|-0-0-xx-0-0-xx-x--0-0-xx-0-0-xx--------|      |-0-0--0-0--0-|
G|-0-0-xx-0-0-xx-6--0-0-xx-0-0-xx--0h3h5-|      |-0-0--0-0--0-|
C|-0-0-xx-0-0-xx----0-0-xx-0-0-xx--------|      |-0-0--0-0--0-|

Solo: (distorted)

D|-----------------------------------------------------|
A|-----------------------------------------------------|
F|-10--9--9-9-9-9-9-10-10--(3x)---10-9-9--10-10-9-9/14-| (2x)
C|--------x-x-x-x-x-x--x-------------------------------|
G|--------7-7-7-7-7-8--8-------------------------------|
C|-----------------------------------------------------|

Repeat:
Verse (1x this time)
Chorus 

Riff: (distorted)

D|-------|
A|-------|
F|-------| 
C|-x-x-x-|
G|-x-x-x-|
C|-x-x-x-|

Repeat:
Chorus

Outro: (distorted)

D|---------------------------------------|      
A|---------------------------------------|     
F|---------------8-----------------------| 
C|-0-0-xx-0-0-xx-x--0-0-xx-0-0-xx--------|     
G|-0-0-xx-0-0-xx-6--0-0-xx-0-0-xx--0h3h5-|     
C|-0-0-xx-0-0-xx----0-0-xx-0-0-xx--------|      

D|------------------------------|      
A|------------------------------|     
F|---------------8--------------| 
C|-0-0-xx-0-0-xx-x--0-0-xx-0-0--|     
G|-0-0-xx-0-0-xx-6--0-0-xx-0-0--|     
C|-0-0-xx-0-0-xx----0-0-xx-0-0--|      

****************************************************************************

h= hammer-on
p= pull-off
/= slide


Tap to rate this tab
# A B C D E F G H I J K L M N O P Q R S T U V W X Y Z